                                                                        S      1
,,33HTěsnění šroubení T - dle DIN,11H20040050000,22HAutodesk InventG      1
or 2015,7Hunknown,32,38,7,99,15,,1.,2,2HMM,1,0.08,15H20160301.101813,   G      2
0.01,10000.,14HStruska Martin,40HBupospol, Armaturka Koukol, spol. s r.oG      3
.,11,0,15H20140815.055042;                                              G      4
     186       1                                                00000000D      1
     186             -63       1       0                               0D      2
     514       2                                                00010000D      3
     514                       1       1                               0D      4
     510       3                                                00010000D      5
     510             -63       1       1                               0D      6
     510       4                                                00010000D      7
     510             -63       1       1                               0D      8
     510       5                                                00010000D      9
     510             -63       1       1                               0D     10
     510       6                                                00010000D     11
     510             -63       1       1                               0D     12
     508       7                                                00010000D     13
     508                       2       1                               0D     14
     508       9                                                00010000D     15
     508                       2       1                               0D     16
     508      11                                                00010000D     17
     508                       2       1                               0D     18
     508      13                                                00010000D     19
     508                       1       1                               0D     20
     508      14                                                00010000D     21
     508                       1       1                               0D     22
     126      15                                                00010000D     23
     126       0               6       0                               0D     24
     126      21                                                00010000D     25
     126       0               4       0                               0D     26
     126      25                                                00010000D     27
     126       0               6       0                               0D     28
     126      31                                                00010000D     29
     126       0               6       0                               0D     30
     126      37                                                00010000D     31
     126       0               8       0                               0D     32
     126      45                                                00010000D     33
     126       0               7       0                               0D     34
     126      52                                                00010000D     35
     126       0               6       0                               0D     36
     126      58                                                00010000D     37
     126       0               8       0                               0D     38
     126      66                                                00010000D     39
     126       0               6       0                               0D     40
     126      72                                                00010000D     41
     126       0               7       0                               0D     42
     126      79                                                00010000D     43
     126       0               6       0                               0D     44
     126      85                                                00010000D     45
     126       0               7       0                               0D     46
     126      92                                                00010000D     47
     126       0               4       0                               0D     48
     128      96                                                00010000D     49
     128       0     -63      15       0                               0D     50
     128     111                                                00010000D     51
     128       0     -63      38       0                               0D     52
     128     149                                                00010000D     53
     128       0     -63      15       0                               0D     54
     128     164                                                00010000D     55
     128       0     -63       3       0                               0D     56
     502     167                                                00010000D     57
     502                       4       1                               0D     58
     504     171                                                00010001D     59
     504                       3       1                               0D     60
     406     174                                                00000000D     61
     406                       1      15                               0D     62
     314     175                                                00000200D     63
     314                       1       0                               0D     64
186,3,1,0,0,1,61;                                                      1P      1
514,4,5,1,7,1,9,1,11,1;                                                3P      2
510,49,1,1,13;                                                         5P      3
510,51,1,1,15;                                                         7P      4
510,53,1,1,17;                                                         9P      5
510,55,2,1,19,21;                                                     11P      6
508,7,0,59,1,1,0,0,59,2,1,0,0,59,3,0,0,0,59,4,0,0,0,59,5,0,0,0,       13P      7
59,2,0,0,0,59,6,1,0;                                                  13P      8
508,8,0,59,7,0,0,0,59,8,0,0,0,59,9,0,0,0,59,10,1,0,0,59,3,1,0,0,      15P      9
59,5,1,0,0,59,4,1,0,0,59,10,0,0;                                      15P     10
508,7,0,59,11,0,0,0,59,12,0,0,0,59,13,1,0,0,59,8,1,0,0,59,7,1,0,      17P     11
0,59,9,1,0,0,59,13,0,0;                                               17P     12
508,2,0,59,11,1,0,0,59,12,1,0;                                        19P     13
508,2,0,59,1,0,0,0,59,6,0,0;                                          21P     14
126,4,2,0,0,0,0,1.5707963267949,1.5707963267949,1.5707963267949,      23P     15
3.14159265358979,3.14159265358979,4.71238898038469,                   23P     16
4.71238898038469,4.71238898038469,1.,0.707106781186548,1.,            23P     17
0.707106781186548,1.,0.,27.,-1.65327317884893D-15,0.,27.,27.,0.,      23P     18
3.30654635769785D-15,27.,0.,-27.,27.,0.,-27.,                         23P     19
4.95981953654678D-15,1.5707963267949,4.71238898038469,0.,0.,0.;       23P     20
126,1,1,0,0,1,0,-0.0640917040979972,-0.0640917040979972,              25P     21
0.0640917040979972,0.0640917040979972,1.,1.,0.,-27.,0.,               25P     22
-3.46095202129185,-27.,0.,-0.0640917040979972,                        25P     23
0.0640917040979972,0.,0.,0.;                                          25P     24
126,2,2,0,0,0,0,3.14159265358979,3.14159265358979,                    27P     25
3.14159265358979,4.71238898038469,4.71238898038469,                   27P     26
4.71238898038469,1.,0.707106781186548,1.,-3.46095202129185,           27P     27
3.30654635769785D-15,27.,-3.46095202129185,-27.,27.,                  27P     28
-3.46095202129185,-27.,4.95981953654678D-15,3.14159265358979,         27P     29
4.71238898038469,0.,0.,0.;                                            27P     30
126,2,2,0,0,0,0,1.5707963267949,1.5707963267949,1.5707963267949,      29P     31
3.14159265358979,3.14159265358979,3.14159265358979,1.,                29P     32
0.707106781186548,1.,-3.46095202129185,27.,                           29P     33
-1.65327317884893D-15,-3.46095202129185,27.,27.,                      29P     34
-3.46095202129185,3.30654635769785D-15,27.,1.5707963267949,           29P     35
3.14159265358979,0.,0.,0.;                                            29P     36
126,4,2,0,0,0,0,4.71238898038469,4.71238898038469,                    31P     37
4.71238898038469,6.28318530717959,6.28318530717959,                   31P     38
7.85398163397448,7.85398163397448,7.85398163397448,1.,                31P     39
0.707106781186547,1.,0.707106781186547,1.,-3.46095202129185,          31P     40
-27.,4.95981953654678D-15,-3.46095202129185,-27.,-27.,                31P     41
-3.46095202129185,-6.61309271539571D-15,-27.,-3.46095202129185,       31P     42
27.,-27.,-3.46095202129185,27.,-8.26636589424464D-15,                 31P     43
4.71238898038469,7.85398163397448,0.,0.,0.;                           31P     44
126,4,2,0,0,0,0,4.71238898038469,4.71238898038469,                    33P     45
4.71238898038469,6.28318530717959,6.28318530717959,                   33P     46
7.85398163397448,7.85398163397448,7.85398163397448,1.,                33P     47
0.707106781186547,1.,0.707106781186547,1.,0.,-27.,                    33P     48
4.95981953654678D-15,0.,-27.,-27.,0.,-6.61309271539571D-15,-27.,      33P     49
0.,27.,-27.,0.,27.,-8.26636589424464D-15,4.71238898038469,            33P     50
7.85398163397448,0.,0.,0.;                                            33P     51
126,2,2,0,0,0,0,1.5707963267949,1.5707963267949,1.5707963267949,      35P     52
3.14159265358979,3.14159265358979,3.14159265358979,1.,                35P     53
0.707106781186548,1.,-3.46095202129185,32.,                           35P     54
-1.95943487863577D-15,-3.46095202129185,32.,32.,                      35P     55
-3.46095202129185,3.91886975727153D-15,32.,1.5707963267949,           35P     56
3.14159265358979,0.,0.,0.;                                            35P     57
126,4,2,0,0,0,0,4.71238898038469,4.71238898038469,                    37P     58
4.71238898038469,6.28318530717959,6.28318530717959,                   37P     59
7.85398163397448,7.85398163397448,7.85398163397448,1.,                37P     60
0.707106781186547,1.,0.707106781186547,1.,-3.46095202129185,          37P     61
-32.,5.8783046359073D-15,-3.46095202129185,-32.,-32.,                 37P     62
-3.46095202129185,-7.83773951454306D-15,-32.,-3.46095202129185,       37P     63
32.,-32.,-3.46095202129185,32.,-9.79717439317883D-15,                 37P     64
4.71238898038469,7.85398163397448,0.,0.,0.;                           37P     65
126,2,2,0,0,0,0,3.14159265358979,3.14159265358979,                    39P     66
3.14159265358979,4.71238898038469,4.71238898038469,                   39P     67
4.71238898038469,1.,0.707106781186548,1.,-3.46095202129185,           39P     68
3.91886975727153D-15,32.,-3.46095202129185,-32.,32.,                  39P     69
-3.46095202129185,-32.,5.8783046359073D-15,3.14159265358979,          39P     70
4.71238898038469,0.,0.,0.;                                            39P     71
126,4,2,0,0,0,0,0.467146111008834,0.467146111008834,                  41P     72
0.467146111008834,1.5707963267949,1.5707963267949,                    41P     73
2.67444654258096,2.67444654258096,2.67444654258096,1.,                41P     74
0.851569142114791,1.,0.851569142114788,1.,-3.46095202129185,0.,       41P     75
32.,-5.,0.,31.2237337361531,-5.,0.,29.5,-5.,0.,27.7762662638469,      41P     76
-3.46095202129185,0.,27.,0.467146111008834,2.67444654258096,0.,       41P     77
0.,0.;                                                                41P     78
126,4,2,0,0,0,0,1.5707963267949,1.5707963267949,1.5707963267949,      43P     79
3.14159265358979,3.14159265358979,4.71238898038469,                   43P     80
4.71238898038469,4.71238898038469,1.,0.707106781186548,1.,            43P     81
0.707106781186548,1.,0.,32.,-1.95943487863577D-15,0.,32.,32.,0.,      43P     82
3.91886975727153D-15,32.,0.,-32.,32.,0.,-32.,                         43P     83
5.8783046359073D-15,1.5707963267949,4.71238898038469,0.,0.,0.;        43P     84
126,4,2,0,0,0,0,4.71238898038469,4.71238898038469,                    45P     85
4.71238898038469,6.28318530717959,6.28318530717959,                   45P     86
7.85398163397448,7.85398163397448,7.85398163397448,1.,                45P     87
0.707106781186547,1.,0.707106781186547,1.,0.,-32.,                    45P     88
5.8783046359073D-15,0.,-32.,-32.,0.,-7.83773951454306D-15,-32.,       45P     89
0.,32.,-32.,0.,32.,-9.79717439317883D-15,4.71238898038469,            45P     90
7.85398163397448,0.,0.,0.;                                            45P     91
126,1,1,0,0,1,0,-0.0540773753326851,-0.0540773753326851,              47P     92
0.0540773753326851,0.0540773753326851,1.,1.,0.,-32.,0.,               47P     93
-3.46095202129185,-32.,0.,-0.0540773753326851,                        47P     94
0.0540773753326851,0.,0.,0.;                                          47P     95
128,1,8,1,2,0,1,0,0,0,-0.0640917040979972,-0.0640917040979972,        49P     96
0.0640917040979972,0.0640917040979972,-3.14159265358979,              49P     97
-3.14159265358979,-3.14159265358979,-1.5707963267949,                 49P     98
-1.5707963267949,0.,0.,1.5707963267949,1.5707963267949,               49P     99
3.14159265358979,3.14159265358979,3.14159265358979,1.,1.,             49P    100
0.707106781186548,0.707106781186548,1.,1.,0.707106781186548,          49P    101
0.707106781186548,1.,1.,0.707106781186548,0.707106781186548,1.,       49P    102
1.,0.707106781186548,0.707106781186548,1.,1.,-3.46095202129185,       49P    103
-27.,0.,0.,-27.,0.,-3.46095202129185,-27.,-27.,0.,-27.,-27.,          49P    104
-3.46095202129185,0.,-27.,0.,0.,-27.,-3.46095202129185,27.,-27.,      49P    105
0.,27.,-27.,-3.46095202129185,27.,0.,0.,27.,0.,                       49P    106
-3.46095202129185,27.,27.,0.,27.,27.,-3.46095202129185,0.,27.,        49P    107
0.,0.,27.,-3.46095202129185,-27.,27.,0.,-27.,27.,                     49P    108
-3.46095202129185,-27.,0.,0.,-27.,0.,-0.0640917040979972,             49P    109
0.0640917040979972,-3.14159265358979,3.14159265358979;                49P    110
128,4,8,2,2,0,1,0,0,0,-2.67444654258096,-2.67444654258096,            51P    111
-2.67444654258096,-1.5707963267949,-1.5707963267949,                  51P    112
-0.467146111008834,-0.467146111008834,-0.467146111008834,             51P    113
-3.14159265358979,-3.14159265358979,-3.14159265358979,                51P    114
-1.5707963267949,-1.5707963267949,0.,0.,1.5707963267949,              51P    115
1.5707963267949,3.14159265358979,3.14159265358979,                    51P    116
3.14159265358979,1.,0.851569142114791,1.,0.851569142114788,1.,        51P    117
0.707106781186548,0.602150315038579,0.707106781186548,                51P    118
0.602150315038578,0.707106781186548,1.,0.851569142114791,1.,          51P    119
0.851569142114788,1.,0.707106781186548,0.602150315038579,             51P    120
0.707106781186548,0.602150315038578,0.707106781186548,1.,             51P    121
0.851569142114791,1.,0.851569142114788,1.,0.707106781186548,          51P    122
0.602150315038579,0.707106781186548,0.602150315038578,                51P    123
0.707106781186548,1.,0.851569142114791,1.,0.851569142114788,1.,       51P    124
0.707106781186548,0.602150315038579,0.707106781186548,                51P    125
0.602150315038578,0.707106781186548,1.,0.851569142114791,1.,          51P    126
0.851569142114788,1.,-3.46095202129185,0.,32.,-5.,0.,                 51P    127
31.2237337361531,-5.,0.,29.5,-5.,0.,27.7762662638469,                 51P    128
-3.46095202129185,0.,27.,-3.46095202129185,-32.,32.,-5.,              51P    129
-31.2237337361531,31.2237337361531,-5.,-29.5,29.5,-5.,                51P    130
-27.7762662638469,27.7762662638469,-3.46095202129185,-27.,27.,        51P    131
-3.46095202129185,-32.,0.,-5.,-31.2237337361531,0.,-5.,-29.5,0.,      51P    132
-5.,-27.7762662638469,0.,-3.46095202129185,-27.,0.,                   51P    133
-3.46095202129185,-32.,-32.,-5.,-31.2237337361531,                    51P    134
-31.2237337361531,-5.,-29.5,-29.5,-5.,-27.7762662638469,              51P    135
-27.7762662638469,-3.46095202129185,-27.,-27.,-3.46095202129185,      51P    136
0.,-32.,-5.,0.,-31.2237337361531,-5.,0.,-29.5,-5.,0.,                 51P    137
-27.7762662638469,-3.46095202129185,0.,-27.,-3.46095202129185,        51P    138
32.,-32.,-5.,31.2237337361531,-31.2237337361531,-5.,29.5,-29.5,       51P    139
-5.,27.7762662638469,-27.7762662638469,-3.46095202129185,27.,         51P    140
-27.,-3.46095202129185,32.,0.,-5.,31.2237337361531,0.,-5.,29.5,       51P    141
0.,-5.,27.7762662638469,0.,-3.46095202129185,27.,0.,                  51P    142
-3.46095202129185,32.,32.,-5.,31.2237337361531,31.2237337361531,      51P    143
-5.,29.5,29.5,-5.,27.7762662638469,27.7762662638469,                  51P    144
-3.46095202129185,27.,27.,-3.46095202129185,0.,32.,-5.,0.,            51P    145
31.2237337361531,-5.,0.,29.5,-5.,0.,27.7762662638469,                 51P    146
-3.46095202129185,0.,27.,-2.67444654258096,-0.467146111008834,        51P    147
-3.14159265358979,3.14159265358979;                                   51P    148
128,1,8,1,2,0,1,0,0,0,-0.0540773753326851,-0.0540773753326851,        53P    149
0.0540773753326851,0.0540773753326851,-3.14159265358979,              53P    150
-3.14159265358979,-3.14159265358979,-1.5707963267949,                 53P    151
-1.5707963267949,0.,0.,1.5707963267949,1.5707963267949,               53P    152
3.14159265358979,3.14159265358979,3.14159265358979,1.,1.,             53P    153
0.707106781186548,0.707106781186548,1.,1.,0.707106781186548,          53P    154
0.707106781186548,1.,1.,0.707106781186548,0.707106781186548,1.,       53P    155
1.,0.707106781186548,0.707106781186548,1.,1.,0.,-32.,0.,              53P    156
-3.46095202129185,-32.,0.,0.,-32.,-32.,-3.46095202129185,-32.,        53P    157
-32.,0.,0.,-32.,-3.46095202129185,0.,-32.,0.,32.,-32.,                53P    158
-3.46095202129185,32.,-32.,0.,32.,0.,-3.46095202129185,32.,0.,        53P    159
0.,32.,32.,-3.46095202129185,32.,32.,0.,0.,32.,                       53P    160
-3.46095202129185,0.,32.,0.,-32.,32.,-3.46095202129185,-32.,32.,      53P    161
0.,-32.,0.,-3.46095202129185,-32.,0.,-0.0540773753326851,             53P    162
0.0540773753326851,-3.14159265358979,3.14159265358979;                53P    163
128,1,1,1,1,0,0,1,0,0,-3.2,-3.2,3.2,3.2,-5.9,-5.9,0.5,0.5,1.,1.,      55P    164
1.,1.,0.,-32.,32.,0.,-32.,-32.,0.,32.,32.,0.,32.,-32.,-3.2,3.2,       55P    165
-5.9,0.5;                                                             55P    166
502,10,0.,27.,0.,0.,-27.,0.,-3.46095202129185,-27.,0.,                57P    167
-3.46095202129185,0.,27.,-3.46095202129185,27.,0.,                    57P    168
-3.46095202129185,32.,0.,-3.46095202129185,0.,32.,                    57P    169
-3.46095202129185,-32.,0.,0.,32.,0.,0.,-32.,0.;                       57P    170
504,13,23,57,1,57,2,25,57,2,57,3,27,57,4,57,3,29,57,5,57,4,31,        59P    171
57,3,57,5,33,57,2,57,1,35,57,6,57,7,37,57,8,57,6,39,57,7,57,8,        59P    172
41,57,7,57,4,43,57,9,57,10,45,57,10,57,9,47,57,10,57,8;               59P    173
406,1,8HTěleso1;                                                     61P    174
314,0.,60.,80.,;                                                      63P    175
S      1G      4D     64P    175                                        T      1
