                                                                        S      1
,,33HTěsnění šroubení T - dle DIN,11H20040080000,22HAutodesk InventG      1
or 2015,7Hunknown,32,38,7,99,15,,1.,2,2HMM,1,0.08,15H20160301.101759,   G      2
0.01,10000.,14HStruska Martin,40HBupospol, Armaturka Koukol, spol. s r.oG      3
.,11,0,15H20140815.055042;                                              G      4
     186       1                                                00000000D      1
     186             -63       1       0                               0D      2
     514       2                                                00010000D      3
     514                       1       1                               0D      4
     510       3                                                00010000D      5
     510             -63       1       1                               0D      6
     510       4                                                00010000D      7
     510             -63       1       1                               0D      8
     510       5                                                00010000D      9
     510             -63       1       1                               0D     10
     510       6                                                00010000D     11
     510             -63       1       1                               0D     12
     508       7                                                00010000D     13
     508                       2       1                               0D     14
     508       9                                                00010000D     15
     508                       2       1                               0D     16
     508      11                                                00010000D     17
     508                       2       1                               0D     18
     508      13                                                00010000D     19
     508                       1       1                               0D     20
     508      14                                                00010000D     21
     508                       1       1                               0D     22
     126      15                                                00010000D     23
     126       0               6       0                               0D     24
     126      21                                                00010000D     25
     126       0               4       0                               0D     26
     126      25                                                00010000D     27
     126       0               6       0                               0D     28
     126      31                                                00010000D     29
     126       0               6       0                               0D     30
     126      37                                                00010000D     31
     126       0               8       0                               0D     32
     126      45                                                00010000D     33
     126       0               7       0                               0D     34
     126      52                                                00010000D     35
     126       0               6       0                               0D     36
     126      58                                                00010000D     37
     126       0               8       0                               0D     38
     126      66                                                00010000D     39
     126       0               6       0                               0D     40
     126      72                                                00010000D     41
     126       0               7       0                               0D     42
     126      79                                                00010000D     43
     126       0               6       0                               0D     44
     126      85                                                00010000D     45
     126       0               7       0                               0D     46
     126      92                                                00010000D     47
     126       0               4       0                               0D     48
     128      96                                                00010000D     49
     128       0     -63      15       0                               0D     50
     128     111                                                00010000D     51
     128       0     -63      39       0                               0D     52
     128     150                                                00010000D     53
     128       0     -63      15       0                               0D     54
     128     165                                                00010000D     55
     128       0     -63       3       0                               0D     56
     502     168                                                00010000D     57
     502                       4       1                               0D     58
     504     172                                                00010001D     59
     504                       3       1                               0D     60
     406     175                                                00000000D     61
     406                       1      15                               0D     62
     314     176                                                00000200D     63
     314                       1       0                               0D     64
186,3,1,0,0,1,61;                                                      1P      1
514,4,5,1,7,1,9,1,11,1;                                                3P      2
510,49,1,1,13;                                                         5P      3
510,51,1,1,15;                                                         7P      4
510,53,1,1,17;                                                         9P      5
510,55,2,1,19,21;                                                     11P      6
508,7,0,59,1,1,0,0,59,2,1,0,0,59,3,0,0,0,59,4,0,0,0,59,5,0,0,0,       13P      7
59,2,0,0,0,59,6,1,0;                                                  13P      8
508,8,0,59,7,0,0,0,59,8,0,0,0,59,9,0,0,0,59,10,1,0,0,59,3,1,0,0,      15P      9
59,5,1,0,0,59,4,1,0,0,59,10,0,0;                                      15P     10
508,7,0,59,11,0,0,0,59,12,0,0,0,59,13,1,0,0,59,8,1,0,0,59,7,1,0,      17P     11
0,59,9,1,0,0,59,13,0,0;                                               17P     12
508,2,0,59,11,1,0,0,59,12,1,0;                                        19P     13
508,2,0,59,1,0,0,0,59,6,0,0;                                          21P     14
126,4,2,0,0,0,0,1.5707963267949,1.5707963267949,1.5707963267949,      23P     15
3.14159265358979,3.14159265358979,4.71238898038469,                   23P     16
4.71238898038469,4.71238898038469,1.,0.707106781186548,1.,            23P     17
0.707106781186548,1.,0.,42.5,-2.60237444818813D-15,0.,42.5,42.5,      23P     18
0.,5.20474889637625D-15,42.5,0.,-42.5,42.5,0.,-42.5,                  23P     19
7.80712334456438D-15,1.5707963267949,4.71238898038469,0.,0.,0.;       23P     20
126,1,1,0,0,1,0,-0.0407170826034335,-0.0407170826034335,              25P     21
0.0407170826034335,0.0407170826034335,1.,1.,0.,-42.5,0.,              25P     22
-3.46095202129185,-42.5,0.,-0.0407170826034335,                       25P     23
0.0407170826034335,0.,0.,0.;                                          25P     24
126,2,2,0,0,0,0,3.14159265358979,3.14159265358979,                    27P     25
3.14159265358979,4.71238898038469,4.71238898038469,                   27P     26
4.71238898038469,1.,0.707106781186548,1.,-3.46095202129185,           27P     27
5.20474889637625D-15,42.5,-3.46095202129185,-42.5,42.5,               27P     28
-3.46095202129185,-42.5,7.80712334456438D-15,3.14159265358979,        27P     29
4.71238898038469,0.,0.,0.;                                            27P     30
126,2,2,0,0,0,0,1.5707963267949,1.5707963267949,1.5707963267949,      29P     31
3.14159265358979,3.14159265358979,3.14159265358979,1.,                29P     32
0.707106781186548,1.,-3.46095202129185,42.5,                          29P     33
-2.60237444818813D-15,-3.46095202129185,42.5,42.5,                    29P     34
-3.46095202129185,5.20474889637625D-15,42.5,1.5707963267949,          29P     35
3.14159265358979,0.,0.,0.;                                            29P     36
126,4,2,0,0,0,0,4.71238898038469,4.71238898038469,                    31P     37
4.71238898038469,6.28318530717959,6.28318530717959,                   31P     38
7.85398163397448,7.85398163397448,7.85398163397448,1.,                31P     39
0.707106781186548,1.,0.707106781186547,1.,-3.46095202129185,          31P     40
-42.5,7.80712334456438D-15,-3.46095202129185,-42.5,-42.5,             31P     41
-3.46095202129185,-1.04094977927525D-14,-42.5,-3.46095202129185,      31P     42
42.5,-42.5,-3.46095202129185,42.5,-1.30118722409406D-14,              31P     43
4.71238898038469,7.85398163397448,0.,0.,0.;                           31P     44
126,4,2,0,0,0,0,4.71238898038469,4.71238898038469,                    33P     45
4.71238898038469,6.28318530717959,6.28318530717959,                   33P     46
7.85398163397448,7.85398163397448,7.85398163397448,1.,                33P     47
0.707106781186548,1.,0.707106781186547,1.,0.,-42.5,                   33P     48
7.80712334456438D-15,0.,-42.5,-42.5,0.,-1.04094977927525D-14,         33P     49
-42.5,0.,42.5,-42.5,0.,42.5,-1.30118722409406D-14,                    33P     50
4.71238898038469,7.85398163397448,0.,0.,0.;                           33P     51
126,2,2,0,0,0,0,1.5707963267949,1.5707963267949,1.5707963267949,      35P     52
3.14159265358979,3.14159265358979,3.14159265358979,1.,                35P     53
0.707106781186547,1.,-3.46095202129185,47.5,                          35P     54
-2.90853614797496D-15,-3.46095202129185,47.5,47.5,                    35P     55
-3.46095202129185,5.81707229594993D-15,47.5,1.5707963267949,          35P     56
3.14159265358979,0.,0.,0.;                                            35P     57
126,4,2,0,0,0,0,4.71238898038469,4.71238898038469,                    37P     58
4.71238898038469,6.28318530717959,6.28318530717959,                   37P     59
7.85398163397448,7.85398163397448,7.85398163397448,1.,                37P     60
0.707106781186547,1.,0.707106781186548,1.,-3.46095202129185,          37P     61
-47.5,8.72560844392489D-15,-3.46095202129185,-47.5,-47.5,             37P     62
-3.46095202129185,-1.16341445918999D-14,-47.5,-3.46095202129185,      37P     63
47.5,-47.5,-3.46095202129185,47.5,-1.45426807398748D-14,              37P     64
4.71238898038469,7.85398163397448,0.,0.,0.;                           37P     65
126,2,2,0,0,0,0,3.14159265358979,3.14159265358979,                    39P     66
3.14159265358979,4.71238898038469,4.71238898038469,                   39P     67
4.71238898038469,1.,0.707106781186548,1.,-3.46095202129185,           39P     68
5.81707229594993D-15,47.5,-3.46095202129185,-47.5,47.5,               39P     69
-3.46095202129185,-47.5,8.72560844392489D-15,3.14159265358979,        39P     70
4.71238898038469,0.,0.,0.;                                            39P     71
126,4,2,0,0,0,0,0.467146111008834,0.467146111008834,                  41P     72
0.467146111008834,1.5707963267949,1.5707963267949,                    41P     73
2.67444654258096,2.67444654258096,2.67444654258096,1.,                41P     74
0.851569142114784,1.,0.851569142114786,1.,-3.46095202129185,0.,       41P     75
47.5,-5.,0.,46.7237337361531,-5.,0.,45.,-5.,0.,43.2762662638469,      41P     76
-3.46095202129185,0.,42.5,0.467146111008834,2.67444654258096,0.,      41P     77
0.,0.;                                                                41P     78
126,4,2,0,0,0,0,1.5707963267949,1.5707963267949,1.5707963267949,      43P     79
3.14159265358979,3.14159265358979,4.71238898038469,                   43P     80
4.71238898038469,4.71238898038469,1.,0.707106781186547,1.,            43P     81
0.707106781186548,1.,0.,47.5,-2.90853614797496D-15,0.,47.5,47.5,      43P     82
0.,5.81707229594993D-15,47.5,0.,-47.5,47.5,0.,-47.5,                  43P     83
8.72560844392489D-15,1.5707963267949,4.71238898038469,0.,0.,0.;       43P     84
126,4,2,0,0,0,0,4.71238898038469,4.71238898038469,                    45P     85
4.71238898038469,6.28318530717959,6.28318530717959,                   45P     86
7.85398163397448,7.85398163397448,7.85398163397448,1.,                45P     87
0.707106781186547,1.,0.707106781186548,1.,0.,-47.5,                   45P     88
8.72560844392489D-15,0.,-47.5,-47.5,0.,-1.16341445918999D-14,         45P     89
-47.5,0.,47.5,-47.5,0.,47.5,-1.45426807398748D-14,                    45P     90
4.71238898038469,7.85398163397448,0.,0.,0.;                           45P     91
126,1,1,0,0,1,0,-0.0364310739083352,-0.0364310739083352,              47P     92
0.0364310739083352,0.0364310739083352,1.,1.,0.,-47.5,0.,              47P     93
-3.46095202129185,-47.5,0.,-0.0364310739083352,                       47P     94
0.0364310739083352,0.,0.,0.;                                          47P     95
128,1,8,1,2,0,1,0,0,0,-0.0407170826034335,-0.0407170826034335,        49P     96
0.0407170826034335,0.0407170826034335,-3.14159265358979,              49P     97
-3.14159265358979,-3.14159265358979,-1.5707963267949,                 49P     98
-1.5707963267949,0.,0.,1.5707963267949,1.5707963267949,               49P     99
3.14159265358979,3.14159265358979,3.14159265358979,1.,1.,             49P    100
0.707106781186548,0.707106781186548,1.,1.,0.707106781186548,          49P    101
0.707106781186548,1.,1.,0.707106781186548,0.707106781186548,1.,       49P    102
1.,0.707106781186548,0.707106781186548,1.,1.,-3.46095202129185,       49P    103
-42.5,0.,0.,-42.5,0.,-3.46095202129185,-42.5,-42.5,0.,-42.5,          49P    104
-42.5,-3.46095202129185,0.,-42.5,0.,0.,-42.5,-3.46095202129185,       49P    105
42.5,-42.5,0.,42.5,-42.5,-3.46095202129185,42.5,0.,0.,42.5,0.,        49P    106
-3.46095202129185,42.5,42.5,0.,42.5,42.5,-3.46095202129185,0.,        49P    107
42.5,0.,0.,42.5,-3.46095202129185,-42.5,42.5,0.,-42.5,42.5,           49P    108
-3.46095202129185,-42.5,0.,0.,-42.5,0.,-0.0407170826034335,           49P    109
0.0407170826034335,-3.14159265358979,3.14159265358979;                49P    110
128,4,8,2,2,0,1,0,0,0,-2.67444654258096,-2.67444654258096,            51P    111
-2.67444654258096,-1.5707963267949,-1.5707963267949,                  51P    112
-0.467146111008834,-0.467146111008834,-0.467146111008834,             51P    113
-3.14159265358979,-3.14159265358979,-3.14159265358979,                51P    114
-1.5707963267949,-1.5707963267949,0.,0.,1.5707963267949,              51P    115
1.5707963267949,3.14159265358979,3.14159265358979,                    51P    116
3.14159265358979,1.,0.851569142114784,1.,0.851569142114786,1.,        51P    117
0.707106781186548,0.602150315038574,0.707106781186548,                51P    118
0.602150315038576,0.707106781186548,1.,0.851569142114784,1.,          51P    119
0.851569142114786,1.,0.707106781186548,0.602150315038574,             51P    120
0.707106781186548,0.602150315038576,0.707106781186548,1.,             51P    121
0.851569142114784,1.,0.851569142114786,1.,0.707106781186548,          51P    122
0.602150315038574,0.707106781186548,0.602150315038576,                51P    123
0.707106781186548,1.,0.851569142114784,1.,0.851569142114786,1.,       51P    124
0.707106781186548,0.602150315038574,0.707106781186548,                51P    125
0.602150315038576,0.707106781186548,1.,0.851569142114784,1.,          51P    126
0.851569142114786,1.,-3.46095202129185,0.,47.5,-5.,0.,                51P    127
46.7237337361531,-5.,0.,45.,-5.,0.,43.2762662638469,                  51P    128
-3.46095202129185,0.,42.5,-3.46095202129185,-47.5,47.5,-5.,           51P    129
-46.7237337361531,46.7237337361531,-5.,-45.,45.,-5.,                  51P    130
-43.2762662638469,43.2762662638469,-3.46095202129185,-42.5,42.5,      51P    131
-3.46095202129185,-47.5,0.,-5.,-46.7237337361531,0.,-5.,-45.,0.,      51P    132
-5.,-43.2762662638469,0.,-3.46095202129185,-42.5,0.,                  51P    133
-3.46095202129185,-47.5,-47.5,-5.,-46.7237337361531,                  51P    134
-46.7237337361531,-5.,-45.,-45.,-5.,-43.2762662638469,                51P    135
-43.2762662638469,-3.46095202129185,-42.5,-42.5,                      51P    136
-3.46095202129185,0.,-47.5,-5.,0.,-46.7237337361531,-5.,0.,-45.,      51P    137
-5.,0.,-43.2762662638469,-3.46095202129185,0.,-42.5,                  51P    138
-3.46095202129185,47.5,-47.5,-5.,46.7237337361531,                    51P    139
-46.7237337361531,-5.,45.,-45.,-5.,43.2762662638469,                  51P    140
-43.2762662638469,-3.46095202129185,42.5,-42.5,                       51P    141
-3.46095202129185,47.5,0.,-5.,46.7237337361531,0.,-5.,45.,0.,         51P    142
-5.,43.2762662638469,0.,-3.46095202129185,42.5,0.,                    51P    143
-3.46095202129185,47.5,47.5,-5.,46.7237337361531,                     51P    144
46.7237337361531,-5.,45.,45.,-5.,43.2762662638469,                    51P    145
43.2762662638469,-3.46095202129185,42.5,42.5,-3.46095202129185,       51P    146
0.,47.5,-5.,0.,46.7237337361531,-5.,0.,45.,-5.,0.,                    51P    147
43.2762662638469,-3.46095202129185,0.,42.5,-2.67444654258096,         51P    148
-0.467146111008834,-3.14159265358979,3.14159265358979;                51P    149
128,1,8,1,2,0,1,0,0,0,-0.0364310739083352,-0.0364310739083352,        53P    150
0.0364310739083352,0.0364310739083352,-3.14159265358979,              53P    151
-3.14159265358979,-3.14159265358979,-1.5707963267949,                 53P    152
-1.5707963267949,0.,0.,1.5707963267949,1.5707963267949,               53P    153
3.14159265358979,3.14159265358979,3.14159265358979,1.,1.,             53P    154
0.707106781186548,0.707106781186548,1.,1.,0.707106781186548,          53P    155
0.707106781186548,1.,1.,0.707106781186548,0.707106781186548,1.,       53P    156
1.,0.707106781186548,0.707106781186548,1.,1.,0.,-47.5,0.,             53P    157
-3.46095202129185,-47.5,0.,0.,-47.5,-47.5,-3.46095202129185,          53P    158
-47.5,-47.5,0.,0.,-47.5,-3.46095202129185,0.,-47.5,0.,47.5,           53P    159
-47.5,-3.46095202129185,47.5,-47.5,0.,47.5,0.,-3.46095202129185,      53P    160
47.5,0.,0.,47.5,47.5,-3.46095202129185,47.5,47.5,0.,0.,47.5,          53P    161
-3.46095202129185,0.,47.5,0.,-47.5,47.5,-3.46095202129185,-47.5,      53P    162
47.5,0.,-47.5,0.,-3.46095202129185,-47.5,0.,-0.0364310739083352,      53P    163
0.0364310739083352,-3.14159265358979,3.14159265358979;                53P    164
128,1,1,1,1,0,0,1,0,0,-4.75,-4.75,4.75,4.75,-9.,-9.,0.5,0.5,1.,       55P    165
1.,1.,1.,0.,-47.5,47.5,0.,-47.5,-47.5,0.,47.5,47.5,0.,47.5,           55P    166
-47.5,-4.75,4.75,-9.,0.5;                                             55P    167
502,10,0.,42.5,0.,0.,-42.5,0.,-3.46095202129185,-42.5,0.,             57P    168
-3.46095202129185,0.,42.5,-3.46095202129185,42.5,0.,                  57P    169
-3.46095202129185,47.5,0.,-3.46095202129185,0.,47.5,                  57P    170
-3.46095202129185,-47.5,0.,0.,47.5,0.,0.,-47.5,0.;                    57P    171
504,13,23,57,1,57,2,25,57,2,57,3,27,57,4,57,3,29,57,5,57,4,31,        59P    172
57,3,57,5,33,57,2,57,1,35,57,6,57,7,37,57,8,57,6,39,57,7,57,8,        59P    173
41,57,7,57,4,43,57,9,57,10,45,57,10,57,9,47,57,10,57,8;               59P    174
406,1,8HTěleso1;                                                     61P    175
314,0.,60.,80.,;                                                      63P    176
S      1G      4D     64P    176                                        T      1
