                                                                        S      1
,,33HTěsnění šroubení T - dle DIN,11H20040125000,22HAutodesk InventG      1
or 2015,7Hunknown,32,38,7,99,15,,1.,2,2HMM,1,0.08,15H20160301.101752,   G      2
0.01,10000.,14HStruska Martin,40HBupospol, Armaturka Koukol, spol. s r.oG      3
.,11,0,15H20140815.055042;                                              G      4
     186       1                                                00000000D      1
     186             -63       1       0                               0D      2
     514       2                                                00010000D      3
     514                       1       1                               0D      4
     510       3                                                00010000D      5
     510             -63       1       1                               0D      6
     510       4                                                00010000D      7
     510             -63       1       1                               0D      8
     510       5                                                00010000D      9
     510             -63       1       1                               0D     10
     510       6                                                00010000D     11
     510             -63       1       1                               0D     12
     508       7                                                00010000D     13
     508                       2       1                               0D     14
     508       9                                                00010000D     15
     508                       2       1                               0D     16
     508      11                                                00010000D     17
     508                       2       1                               0D     18
     508      13                                                00010000D     19
     508                       1       1                               0D     20
     508      14                                                00010000D     21
     508                       1       1                               0D     22
     126      15                                                00010000D     23
     126       0               7       0                               0D     24
     126      22                                                00010000D     25
     126       0               4       0                               0D     26
     126      26                                                00010000D     27
     126       0               6       0                               0D     28
     126      32                                                00010000D     29
     126       0               6       0                               0D     30
     126      38                                                00010000D     31
     126       0               8       0                               0D     32
     126      46                                                00010000D     33
     126       0               7       0                               0D     34
     126      53                                                00010000D     35
     126       0               5       0                               0D     36
     126      58                                                00010000D     37
     126       0               8       0                               0D     38
     126      66                                                00010000D     39
     126       0               6       0                               0D     40
     126      72                                                00010000D     41
     126       0               7       0                               0D     42
     126      79                                                00010000D     43
     126       0               6       0                               0D     44
     126      85                                                00010000D     45
     126       0               7       0                               0D     46
     126      92                                                00010000D     47
     126       0               4       0                               0D     48
     128      96                                                00010000D     49
     128       0     -63      16       0                               0D     50
     128     112                                                00010000D     51
     128       0     -63      39       0                               0D     52
     128     151                                                00010000D     53
     128       0     -63      15       0                               0D     54
     128     166                                                00010000D     55
     128       0     -63       4       0                               0D     56
     502     170                                                00010000D     57
     502                       4       1                               0D     58
     504     174                                                00010001D     59
     504                       3       1                               0D     60
     406     177                                                00000000D     61
     406                       1      15                               0D     62
     314     178                                                00000200D     63
     314                       1       0                               0D     64
186,3,1,0,0,1,61;                                                      1P      1
514,4,5,1,7,1,9,1,11,1;                                                3P      2
510,49,1,1,13;                                                         5P      3
510,51,1,1,15;                                                         7P      4
510,53,1,1,17;                                                         9P      5
510,55,2,1,19,21;                                                     11P      6
508,7,0,59,1,1,0,0,59,2,1,0,0,59,3,0,0,0,59,4,0,0,0,59,5,0,0,0,       13P      7
59,2,0,0,0,59,6,1,0;                                                  13P      8
508,8,0,59,7,0,0,0,59,8,0,0,0,59,9,0,0,0,59,10,1,0,0,59,3,1,0,0,      15P      9
59,5,1,0,0,59,4,1,0,0,59,10,0,0;                                      15P     10
508,7,0,59,11,0,0,0,59,12,0,0,0,59,13,1,0,0,59,8,1,0,0,59,7,1,0,      17P     11
0,59,9,1,0,0,59,13,0,0;                                               17P     12
508,2,0,59,11,1,0,0,59,12,1,0;                                        19P     13
508,2,0,59,1,0,0,0,59,6,0,0;                                          21P     14
126,4,2,0,0,0,0,1.5707963267949,1.5707963267949,1.5707963267949,      23P     15
3.14159265358979,3.14159265358979,4.71238898038469,                   23P     16
4.71238898038469,4.71238898038469,1.,0.707106781186548,1.,            23P     17
0.707106781186548,1.,0.,65.461,-4.00833020594924D-15,0.,65.461,       23P     18
65.461,0.,8.01666041189849D-15,65.461,0.,-65.461,65.461,0.,           23P     19
-65.461,1.20249906178477D-14,1.5707963267949,4.71238898038469,        23P     20
0.,0.,0.;                                                             23P     21
126,1,1,0,0,1,0,-0.0199519758403454,-0.0199519758403454,              25P     22
0.0199519758403454,0.0199519758403454,1.,1.,0.,-65.461,0.,            25P     23
-2.6121525809697,-65.461,0.,-0.0199519758403454,                      25P     24
0.0199519758403454,0.,0.,0.;                                          25P     25
126,2,2,0,0,0,0,3.14159265358979,3.14159265358979,                    27P     26
3.14159265358979,4.71238898038469,4.71238898038469,                   27P     27
4.71238898038469,1.,0.707106781186548,1.,-2.6121525809697,            27P     28
8.01666041189849D-15,65.461,-2.6121525809697,-65.461,65.461,          27P     29
-2.6121525809697,-65.461,1.20249906178477D-14,3.14159265358979,       27P     30
4.71238898038469,0.,0.,0.;                                            27P     31
126,2,2,0,0,0,0,1.5707963267949,1.5707963267949,1.5707963267949,      29P     32
3.14159265358979,3.14159265358979,3.14159265358979,1.,                29P     33
0.707106781186548,1.,-2.6121525809697,65.461,                         29P     34
-4.00833020594924D-15,-2.6121525809697,65.461,65.461,                 29P     35
-2.6121525809697,8.01666041189849D-15,65.461,1.5707963267949,         29P     36
3.14159265358979,0.,0.,0.;                                            29P     37
126,4,2,0,0,0,0,4.71238898038469,4.71238898038469,                    31P     38
4.71238898038469,6.28318530717959,6.28318530717959,                   31P     39
7.85398163397448,7.85398163397448,7.85398163397448,1.,                31P     40
0.707106781186548,1.,0.707106781186547,1.,-2.6121525809697,           31P     41
-65.461,1.20249906178477D-14,-2.6121525809697,-65.461,-65.461,        31P     42
-2.6121525809697,-1.6033320823797D-14,-65.461,-2.6121525809697,       31P     43
65.461,-65.461,-2.6121525809697,65.461,-2.00416510297462D-14,         31P     44
4.71238898038469,7.85398163397448,0.,0.,0.;                           31P     45
126,4,2,0,0,0,0,4.71238898038469,4.71238898038469,                    33P     46
4.71238898038469,6.28318530717959,6.28318530717959,                   33P     47
7.85398163397448,7.85398163397448,7.85398163397448,1.,                33P     48
0.707106781186548,1.,0.707106781186547,1.,0.,-65.461,                 33P     49
1.20249906178477D-14,0.,-65.461,-65.461,0.,-1.6033320823797D-14,      33P     50
-65.461,0.,65.461,-65.461,0.,65.461,-2.00416510297462D-14,            33P     51
4.71238898038469,7.85398163397448,0.,0.,0.;                           33P     52
126,2,2,0,0,0,0,1.5707963267949,1.5707963267949,1.5707963267949,      35P     53
3.14159265358979,3.14159265358979,3.14159265358979,1.,                35P     54
0.707106781186548,1.,-2.6121525809697,71.,-4.3474961369731D-15,       35P     55
-2.6121525809697,71.,71.,-2.6121525809697,8.69499227394621D-15,       35P     56
71.,1.5707963267949,3.14159265358979,0.,0.,0.;                        35P     57
126,4,2,0,0,0,0,4.71238898038469,4.71238898038469,                    37P     58
4.71238898038469,6.28318530717959,6.28318530717959,                   37P     59
7.85398163397448,7.85398163397448,7.85398163397448,1.,                37P     60
0.707106781186548,1.,0.707106781186548,1.,-2.6121525809697,-71.,      37P     61
1.30424884109193D-14,-2.6121525809697,-71.,-71.,                      37P     62
-2.6121525809697,-1.73899845478924D-14,-71.,-2.6121525809697,         37P     63
71.,-71.,-2.6121525809697,71.,-2.17374806848655D-14,                  37P     64
4.71238898038469,7.85398163397448,0.,0.,0.;                           37P     65
126,2,2,0,0,0,0,3.14159265358979,3.14159265358979,                    39P     66
3.14159265358979,4.71238898038469,4.71238898038469,                   39P     67
4.71238898038469,1.,0.707106781186548,1.,-2.6121525809697,            39P     68
8.69499227394621D-15,71.,-2.6121525809697,-71.,71.,                   39P     69
-2.6121525809697,-71.,1.30424884109193D-14,3.14159265358979,          39P     70
4.71238898038469,0.,0.,0.;                                            39P     71
126,4,2,0,0,0,0,0.147734156587567,0.147734156587567,                  41P     72
0.147734156587567,1.5707963267949,1.5707963267949,                    41P     73
2.99385849700223,2.99385849700223,2.99385849700223,1.,                41P     74
0.757362974519586,1.,0.757362974519586,1.,-2.6121525809697,0.,        41P     75
71.,-5.,0.,70.6446443485412,-5.,0.,68.2305,-5.,0.,                    41P     76
65.8163556514588,-2.6121525809697,0.,65.461,0.147734156587567,        41P     77
2.99385849700223,0.,0.,0.;                                            41P     78
126,4,2,0,0,0,0,1.5707963267949,1.5707963267949,1.5707963267949,      43P     79
3.14159265358979,3.14159265358979,4.71238898038469,                   43P     80
4.71238898038469,4.71238898038469,1.,0.707106781186548,1.,            43P     81
0.707106781186548,1.,0.,71.,-4.3474961369731D-15,0.,71.,71.,0.,       43P     82
8.69499227394621D-15,71.,0.,-71.,71.,0.,-71.,                         43P     83
1.30424884109193D-14,1.5707963267949,4.71238898038469,0.,0.,0.;       43P     84
126,4,2,0,0,0,0,4.71238898038469,4.71238898038469,                    45P     85
4.71238898038469,6.28318530717959,6.28318530717959,                   45P     86
7.85398163397448,7.85398163397448,7.85398163397448,1.,                45P     87
0.707106781186548,1.,0.707106781186548,1.,0.,-71.,                    45P     88
1.30424884109193D-14,0.,-71.,-71.,0.,-1.73899845478924D-14,-71.,      45P     89
0.,71.,-71.,0.,71.,-2.17374806848655D-14,4.71238898038469,            45P     90
7.85398163397448,0.,0.,0.;                                            45P     91
126,1,1,0,0,1,0,-0.0183954407110542,-0.0183954407110542,              47P     92
0.0183954407110542,0.0183954407110542,1.,1.,0.,-71.,0.,               47P     93
-2.6121525809697,-71.,0.,-0.0183954407110542,0.0183954407110542,      47P     94
0.,0.,0.;                                                             47P     95
128,1,8,1,2,0,1,0,0,0,-0.0199519758403454,-0.0199519758403454,        49P     96
0.0199519758403454,0.0199519758403454,-3.14159265358979,              49P     97
-3.14159265358979,-3.14159265358979,-1.5707963267949,                 49P     98
-1.5707963267949,0.,0.,1.5707963267949,1.5707963267949,               49P     99
3.14159265358979,3.14159265358979,3.14159265358979,1.,1.,             49P    100
0.707106781186548,0.707106781186548,1.,1.,0.707106781186548,          49P    101
0.707106781186548,1.,1.,0.707106781186548,0.707106781186548,1.,       49P    102
1.,0.707106781186548,0.707106781186548,1.,1.,-2.6121525809697,        49P    103
-65.461,0.,0.,-65.461,0.,-2.6121525809697,-65.461,-65.461,0.,         49P    104
-65.461,-65.461,-2.6121525809697,0.,-65.461,0.,0.,-65.461,            49P    105
-2.6121525809697,65.461,-65.461,0.,65.461,-65.461,                    49P    106
-2.6121525809697,65.461,0.,0.,65.461,0.,-2.6121525809697,65.461,      49P    107
65.461,0.,65.461,65.461,-2.6121525809697,0.,65.461,0.,0.,65.461,      49P    108
-2.6121525809697,-65.461,65.461,0.,-65.461,65.461,                    49P    109
-2.6121525809697,-65.461,0.,0.,-65.461,0.,-0.0199519758403454,        49P    110
0.0199519758403454,-3.14159265358979,3.14159265358979;                49P    111
128,4,8,2,2,0,1,0,0,0,-2.99385849700223,-2.99385849700223,            51P    112
-2.99385849700223,-1.5707963267949,-1.5707963267949,                  51P    113
-0.147734156587567,-0.147734156587567,-0.147734156587567,             51P    114
-3.14159265358979,-3.14159265358979,-3.14159265358979,                51P    115
-1.5707963267949,-1.5707963267949,0.,0.,1.5707963267949,              51P    116
1.5707963267949,3.14159265358979,3.14159265358979,                    51P    117
3.14159265358979,1.,0.757362974519586,1.,0.757362974519586,1.,        51P    118
0.707106781186548,0.535536495102414,0.707106781186548,                51P    119
0.535536495102414,0.707106781186548,1.,0.757362974519586,1.,          51P    120
0.757362974519586,1.,0.707106781186548,0.535536495102414,             51P    121
0.707106781186548,0.535536495102414,0.707106781186548,1.,             51P    122
0.757362974519586,1.,0.757362974519586,1.,0.707106781186548,          51P    123
0.535536495102414,0.707106781186548,0.535536495102414,                51P    124
0.707106781186548,1.,0.757362974519586,1.,0.757362974519586,1.,       51P    125
0.707106781186548,0.535536495102414,0.707106781186548,                51P    126
0.535536495102414,0.707106781186548,1.,0.757362974519586,1.,          51P    127
0.757362974519586,1.,-2.6121525809697,0.,71.,-5.,0.,                  51P    128
70.6446443485412,-5.,0.,68.2305,-5.,0.,65.8163556514588,              51P    129
-2.6121525809697,0.,65.461,-2.6121525809697,-71.,71.,-5.,             51P    130
-70.6446443485412,70.6446443485412,-5.,-68.2305,68.2305,-5.,          51P    131
-65.8163556514588,65.8163556514588,-2.6121525809697,-65.461,          51P    132
65.461,-2.6121525809697,-71.,0.,-5.,-70.6446443485412,0.,-5.,         51P    133
-68.2305,0.,-5.,-65.8163556514588,0.,-2.6121525809697,-65.461,        51P    134
0.,-2.6121525809697,-71.,-71.,-5.,-70.6446443485412,                  51P    135
-70.6446443485412,-5.,-68.2305,-68.2305,-5.,-65.8163556514588,        51P    136
-65.8163556514588,-2.6121525809697,-65.461,-65.461,                   51P    137
-2.6121525809697,0.,-71.,-5.,0.,-70.6446443485412,-5.,0.,             51P    138
-68.2305,-5.,0.,-65.8163556514588,-2.6121525809697,0.,-65.461,        51P    139
-2.6121525809697,71.,-71.,-5.,70.6446443485412,                       51P    140
-70.6446443485412,-5.,68.2305,-68.2305,-5.,65.8163556514588,          51P    141
-65.8163556514588,-2.6121525809697,65.461,-65.461,                    51P    142
-2.6121525809697,71.,0.,-5.,70.6446443485412,0.,-5.,68.2305,0.,       51P    143
-5.,65.8163556514588,0.,-2.6121525809697,65.461,0.,                   51P    144
-2.6121525809697,71.,71.,-5.,70.6446443485412,70.6446443485412,       51P    145
-5.,68.2305,68.2305,-5.,65.8163556514588,65.8163556514588,            51P    146
-2.6121525809697,65.461,65.461,-2.6121525809697,0.,71.,-5.,0.,        51P    147
70.6446443485412,-5.,0.,68.2305,-5.,0.,65.8163556514588,              51P    148
-2.6121525809697,0.,65.461,-2.99385849700223,-0.147734156587567,      51P    149
-3.14159265358979,3.14159265358979;                                   51P    150
128,1,8,1,2,0,1,0,0,0,-0.0183954407110542,-0.0183954407110542,        53P    151
0.0183954407110542,0.0183954407110542,-3.14159265358979,              53P    152
-3.14159265358979,-3.14159265358979,-1.5707963267949,                 53P    153
-1.5707963267949,0.,0.,1.5707963267949,1.5707963267949,               53P    154
3.14159265358979,3.14159265358979,3.14159265358979,1.,1.,             53P    155
0.707106781186548,0.707106781186548,1.,1.,0.707106781186548,          53P    156
0.707106781186548,1.,1.,0.707106781186548,0.707106781186548,1.,       53P    157
1.,0.707106781186548,0.707106781186548,1.,1.,0.,-71.,0.,              53P    158
-2.6121525809697,-71.,0.,0.,-71.,-71.,-2.6121525809697,-71.,          53P    159
-71.,0.,0.,-71.,-2.6121525809697,0.,-71.,0.,71.,-71.,                 53P    160
-2.6121525809697,71.,-71.,0.,71.,0.,-2.6121525809697,71.,0.,0.,       53P    161
71.,71.,-2.6121525809697,71.,71.,0.,0.,71.,-2.6121525809697,0.,       53P    162
71.,0.,-71.,71.,-2.6121525809697,-71.,71.,0.,-71.,0.,                 53P    163
-2.6121525809697,-71.,0.,-0.0183954407110542,0.0183954407110542,      53P    164
-3.14159265358979,3.14159265358979;                                   53P    165
128,1,1,1,1,0,0,1,0,0,-7.1,-7.1,7.1,7.1,-13.6461,-13.6461,            55P    166
0.553900000000001,0.553900000000001,1.,1.,1.,1.,0.,-71.,71.,0.,       55P    167
-71.,-71.,0.,71.,71.,0.,71.,-71.,-7.1,7.1,-13.6461,                   55P    168
0.553900000000001;                                                    55P    169
502,10,0.,65.461,0.,0.,-65.461,0.,-2.6121525809697,-65.461,0.,        57P    170
-2.6121525809697,0.,65.461,-2.6121525809697,65.461,0.,                57P    171
-2.6121525809697,71.,0.,-2.6121525809697,0.,71.,                      57P    172
-2.6121525809697,-71.,0.,0.,71.,0.,0.,-71.,0.;                        57P    173
504,13,23,57,1,57,2,25,57,2,57,3,27,57,4,57,3,29,57,5,57,4,31,        59P    174
57,3,57,5,33,57,2,57,1,35,57,6,57,7,37,57,8,57,6,39,57,7,57,8,        59P    175
41,57,7,57,4,43,57,9,57,10,45,57,10,57,9,47,57,10,57,8;               59P    176
406,1,8HTěleso1;                                                     61P    177
314,0.,60.,80.,;                                                      63P    178
S      1G      4D     64P    178                                        T      1
