                                                                        S      1
,,33HTěsnění šroubení T - dle DIN,11H20040150000,22HAutodesk InventG      1
or 2015,7Hunknown,32,38,7,99,15,,1.,2,2HMM,1,0.08,15H20160301.101746,   G      2
0.01,10000.,14HStruska Martin,40HBupospol, Armaturka Koukol, spol. s r.oG      3
.,11,0,15H20140815.055042;                                              G      4
     186       1                                                00000000D      1
     186             -63       1       0                               0D      2
     514       2                                                00010000D      3
     514                       1       1                               0D      4
     510       3                                                00010000D      5
     510             -63       1       1                               0D      6
     510       4                                                00010000D      7
     510             -63       1       1                               0D      8
     510       5                                                00010000D      9
     510             -63       1       1                               0D     10
     510       6                                                00010000D     11
     510             -63       1       1                               0D     12
     508       7                                                00010000D     13
     508                       2       1                               0D     14
     508       9                                                00010000D     15
     508                       2       1                               0D     16
     508      11                                                00010000D     17
     508                       2       1                               0D     18
     508      13                                                00010000D     19
     508                       1       1                               0D     20
     508      14                                                00010000D     21
     508                       1       1                               0D     22
     126      15                                                00010000D     23
     126       0               7       0                               0D     24
     126      22                                                00010000D     25
     126       0               4       0                               0D     26
     126      26                                                00010000D     27
     126       0               6       0                               0D     28
     126      32                                                00010000D     29
     126       0               6       0                               0D     30
     126      38                                                00010000D     31
     126       0               8       0                               0D     32
     126      46                                                00010000D     33
     126       0               7       0                               0D     34
     126      53                                                00010000D     35
     126       0               6       0                               0D     36
     126      59                                                00010000D     37
     126       0               8       0                               0D     38
     126      67                                                00010000D     39
     126       0               6       0                               0D     40
     126      73                                                00010000D     41
     126       0               7       0                               0D     42
     126      80                                                00010000D     43
     126       0               6       0                               0D     44
     126      86                                                00010000D     45
     126       0               7       0                               0D     46
     126      93                                                00010000D     47
     126       0               4       0                               0D     48
     128      97                                                00010000D     49
     128       0     -63      16       0                               0D     50
     128     113                                                00010000D     51
     128       0     -63      40       0                               0D     52
     128     153                                                00010000D     53
     128       0     -63      19       0                               0D     54
     128     172                                                00010000D     55
     128       0     -63       3       0                               0D     56
     502     175                                                00010000D     57
     502                       5       1                               0D     58
     504     180                                                00010001D     59
     504                       3       1                               0D     60
     406     183                                                00000000D     61
     406                       1      15                               0D     62
     314     184                                                00000200D     63
     314                       1       0                               0D     64
186,3,1,0,0,1,61;                                                      1P      1
514,4,5,1,7,1,9,1,11,1;                                                3P      2
510,49,1,1,13;                                                         5P      3
510,51,1,1,15;                                                         7P      4
510,53,1,1,17;                                                         9P      5
510,55,2,1,19,21;                                                     11P      6
508,7,0,59,1,1,0,0,59,2,1,0,0,59,3,0,0,0,59,4,0,0,0,59,5,0,0,0,       13P      7
59,2,0,0,0,59,6,1,0;                                                  13P      8
508,8,0,59,7,0,0,0,59,8,0,0,0,59,9,0,0,0,59,10,1,0,0,59,3,1,0,0,      15P      9
59,5,1,0,0,59,4,1,0,0,59,10,0,0;                                      15P     10
508,7,0,59,11,0,0,0,59,12,0,0,0,59,13,1,0,0,59,8,1,0,0,59,7,1,0,      17P     11
0,59,9,1,0,0,59,13,0,0;                                               17P     12
508,2,0,59,11,1,0,0,59,12,1,0;                                        19P     13
508,2,0,59,1,0,0,0,59,6,0,0;                                          21P     14
126,4,2,0,0,0,0,1.5707963267949,1.5707963267949,1.5707963267949,      23P     15
3.14159265358979,3.14159265358979,4.71238898038469,                   23P     16
4.71238898038469,4.71238898038469,1.,0.707106781186547,1.,            23P     17
0.707106781186548,1.,0.,77.922,-4.771346394158D-15,0.,77.922,         23P     18
77.922,0.,9.54269278831601D-15,77.922,0.,-77.922,77.922,0.,           23P     19
-77.922,1.4314039182474D-14,1.5707963267949,4.71238898038469,0.,      23P     20
0.,0.;                                                                23P     21
126,1,1,0,0,1,0,-0.0157076922541215,-0.0157076922541215,              25P     22
0.0157076922541215,0.0157076922541215,1.,1.,0.,-77.922,0.,            25P     23
-2.44794959165132,-77.922,0.,-0.0157076922541215,                     25P     24
0.0157076922541215,0.,0.,0.;                                          25P     25
126,2,2,0,0,0,0,3.14159265358979,3.14159265358979,                    27P     26
3.14159265358979,4.71238898038469,4.71238898038469,                   27P     27
4.71238898038469,1.,0.707106781186548,1.,-2.44794959165132,           27P     28
9.54269278831601D-15,77.922,-2.44794959165132,-77.922,77.922,         27P     29
-2.44794959165132,-77.922,1.4314039182474D-14,3.14159265358979,       27P     30
4.71238898038469,0.,0.,0.;                                            27P     31
126,2,2,0,0,0,0,1.5707963267949,1.5707963267949,1.5707963267949,      29P     32
3.14159265358979,3.14159265358979,3.14159265358979,1.,                29P     33
0.707106781186547,1.,-2.44794959165132,77.922,                        29P     34
-4.771346394158D-15,-2.44794959165132,77.922,77.922,                  29P     35
-2.44794959165132,9.54269278831601D-15,77.922,1.5707963267949,        29P     36
3.14159265358979,0.,0.,0.;                                            29P     37
126,4,2,0,0,0,0,4.71238898038469,4.71238898038469,                    31P     38
4.71238898038469,6.28318530717959,6.28318530717959,                   31P     39
7.85398163397448,7.85398163397448,7.85398163397448,1.,                31P     40
0.707106781186547,1.,0.707106781186547,1.,-2.44794959165132,          31P     41
-77.922,1.4314039182474D-14,-2.44794959165132,-77.922,-77.922,        31P     42
-2.44794959165132,-1.9085385576632D-14,-77.922,                       31P     43
-2.44794959165132,77.922,-77.922,-2.44794959165132,77.922,            31P     44
-2.385673197079D-14,4.71238898038469,7.85398163397448,0.,0.,0.;       31P     45
126,4,2,0,0,0,0,4.71238898038469,4.71238898038469,                    33P     46
4.71238898038469,6.28318530717959,6.28318530717959,                   33P     47
7.85398163397448,7.85398163397448,7.85398163397448,1.,                33P     48
0.707106781186547,1.,0.707106781186547,1.,0.,-77.922,                 33P     49
1.4314039182474D-14,0.,-77.922,-77.922,0.,-1.9085385576632D-14,       33P     50
-77.922,0.,77.922,-77.922,0.,77.922,-2.385673197079D-14,              33P     51
4.71238898038469,7.85398163397448,0.,0.,0.;                           33P     52
126,2,2,0,0,0,0,1.5707963267949,1.5707963267949,1.5707963267949,      35P     53
3.14159265358979,3.14159265358979,3.14159265358979,1.,                35P     54
0.707106781186547,1.,-2.44794959165132,83.5,                          35P     55
-5.1129003864402D-15,-2.44794959165132,83.5,83.5,                     35P     56
-2.44794959165132,1.02258007728804D-14,83.5,1.5707963267949,          35P     57
3.14159265358979,0.,0.,0.;                                            35P     58
126,4,2,0,0,0,0,4.71238898038469,4.71238898038469,                    37P     59
4.71238898038469,6.28318530717959,6.28318530717959,                   37P     60
7.85398163397448,7.85398163397448,7.85398163397448,1.,                37P     61
0.707106781186547,1.,0.707106781186547,1.,-2.44794959165132,          37P     62
-83.5,1.53387011593206D-14,-2.44794959165132,-83.5,-83.5,             37P     63
-2.44794959165132,-2.04516015457608D-14,-83.5,-2.44794959165132,      37P     64
83.5,-83.5,-2.44794959165132,83.5,-2.5564501932201D-14,               37P     65
4.71238898038469,7.85398163397448,0.,0.,0.;                           37P     66
126,2,2,0,0,0,0,3.14159265358979,3.14159265358979,                    39P     67
3.14159265358979,4.71238898038469,4.71238898038469,                   39P     68
4.71238898038469,1.,0.707106781186547,1.,-2.44794959165132,           39P     69
1.02258007728804D-14,83.5,-2.44794959165132,-83.5,83.5,               39P     70
-2.44794959165132,-83.5,1.53387011593206D-14,3.14159265358979,        39P     71
4.71238898038469,0.,0.,0.;                                            39P     72
126,4,2,0,0,0,0,0.0886695709436149,0.0886695709436149,                41P     73
0.0886695709436149,1.5707963267949,1.5707963267949,                   41P     74
3.05292308264618,3.05292308264618,3.05292308264618,1.,                41P     75
0.737751118463999,1.,0.737751118463987,1.,-2.44794959165131,0.,       41P     76
83.5,-5.,0.,83.2731158635268,-5.,0.,80.711,-5.,0.,                    41P     77
78.1488841364731,-2.44794959165131,0.,77.922,0.0886695709436149,      41P     78
3.05292308264618,0.,0.,0.;                                            41P     79
126,4,2,0,0,0,0,1.5707963267949,1.5707963267949,1.5707963267949,      43P     80
3.14159265358979,3.14159265358979,4.71238898038469,                   43P     81
4.71238898038469,4.71238898038469,1.,0.707106781186547,1.,            43P     82
0.707106781186547,1.,0.,83.5,-5.1129003864402D-15,0.,83.5,83.5,       43P     83
0.,1.02258007728804D-14,83.5,0.,-83.5,83.5,0.,-83.5,                  43P     84
1.53387011593206D-14,1.5707963267949,4.71238898038469,0.,0.,0.;       43P     85
126,4,2,0,0,0,0,4.71238898038469,4.71238898038469,                    45P     86
4.71238898038469,6.28318530717959,6.28318530717959,                   45P     87
7.85398163397448,7.85398163397448,7.85398163397448,1.,                45P     88
0.707106781186547,1.,0.707106781186547,1.,0.,-83.5,                   45P     89
1.53387011593206D-14,0.,-83.5,-83.5,0.,-2.04516015457608D-14,         45P     90
-83.5,0.,83.5,-83.5,0.,83.5,-2.5564501932201D-14,                     45P     91
4.71238898038469,7.85398163397448,0.,0.,0.;                           45P     92
126,1,1,0,0,1,0,-0.0146583807883312,-0.0146583807883312,              47P     93
0.0146583807883312,0.0146583807883312,1.,1.,                          47P     94
-1.38777878078145D-16,-83.5,0.,-2.44794959165132,-83.5,0.,            47P     95
-0.0146583807883312,0.0146583807883312,0.,0.,0.;                      47P     96
128,1,8,1,2,0,1,0,0,0,-0.0157076922541215,-0.0157076922541215,        49P     97
0.0157076922541215,0.0157076922541215,-3.14159265358979,              49P     98
-3.14159265358979,-3.14159265358979,-1.5707963267949,                 49P     99
-1.5707963267949,0.,0.,1.5707963267949,1.5707963267949,               49P    100
3.14159265358979,3.14159265358979,3.14159265358979,1.,1.,             49P    101
0.707106781186548,0.707106781186548,1.,1.,0.707106781186548,          49P    102
0.707106781186548,1.,1.,0.707106781186548,0.707106781186548,1.,       49P    103
1.,0.707106781186548,0.707106781186548,1.,1.,-2.44794959165132,       49P    104
-77.922,0.,0.,-77.922,0.,-2.44794959165132,-77.922,-77.922,0.,        49P    105
-77.922,-77.922,-2.44794959165132,0.,-77.922,0.,0.,-77.922,           49P    106
-2.44794959165132,77.922,-77.922,0.,77.922,-77.922,                   49P    107
-2.44794959165132,77.922,0.,0.,77.922,0.,-2.44794959165132,           49P    108
77.922,77.922,0.,77.922,77.922,-2.44794959165132,0.,77.922,0.,        49P    109
0.,77.922,-2.44794959165132,-77.922,77.922,0.,-77.922,77.922,         49P    110
-2.44794959165132,-77.922,0.,0.,-77.922,0.,-0.0157076922541215,       49P    111
0.0157076922541215,-3.14159265358979,3.14159265358979;                49P    112
128,4,8,2,2,0,1,0,0,0,-3.05292308264618,-3.05292308264618,            51P    113
-3.05292308264618,-1.5707963267949,-1.5707963267949,                  51P    114
-0.0886695709436149,-0.0886695709436149,-0.0886695709436149,          51P    115
-3.14159265358979,-3.14159265358979,-3.14159265358979,                51P    116
-1.5707963267949,-1.5707963267949,0.,0.,1.5707963267949,              51P    117
1.5707963267949,3.14159265358979,3.14159265358979,                    51P    118
3.14159265358979,1.,0.737751118463999,1.,0.737751118463987,1.,        51P    119
0.707106781186548,0.521668818693853,0.707106781186548,                51P    120
0.521668818693845,0.707106781186548,1.,0.737751118463999,1.,          51P    121
0.737751118463987,1.,0.707106781186548,0.521668818693853,             51P    122
0.707106781186548,0.521668818693845,0.707106781186548,1.,             51P    123
0.737751118463999,1.,0.737751118463987,1.,0.707106781186548,          51P    124
0.521668818693853,0.707106781186548,0.521668818693845,                51P    125
0.707106781186548,1.,0.737751118463999,1.,0.737751118463987,1.,       51P    126
0.707106781186548,0.521668818693853,0.707106781186548,                51P    127
0.521668818693845,0.707106781186548,1.,0.737751118463999,1.,          51P    128
0.737751118463987,1.,-2.44794959165131,0.,83.5,-5.,0.,                51P    129
83.2731158635268,-5.,0.,80.711,-5.,0.,78.1488841364732,               51P    130
-2.44794959165131,0.,77.922,-2.44794959165131,-83.5,83.5,-5.,         51P    131
-83.2731158635268,83.2731158635268,-5.,-80.711,80.711,-5.,            51P    132
-78.1488841364731,78.1488841364731,-2.44794959165131,-77.922,         51P    133
77.922,-2.44794959165131,-83.5,0.,-5.,-83.2731158635268,0.,-5.,       51P    134
-80.711,0.,-5.,-78.1488841364732,0.,-2.44794959165131,-77.922,        51P    135
0.,-2.44794959165131,-83.5,-83.5,-5.,-83.2731158635268,               51P    136
-83.2731158635268,-5.,-80.711,-80.711,-5.,-78.1488841364731,          51P    137
-78.1488841364731,-2.44794959165131,-77.922,-77.922,                  51P    138
-2.44794959165131,0.,-83.5,-5.,0.,-83.2731158635268,-5.,0.,           51P    139
-80.711,-5.,0.,-78.1488841364732,-2.44794959165131,0.,-77.922,        51P    140
-2.44794959165131,83.5,-83.5,-5.,83.2731158635268,                    51P    141
-83.2731158635268,-5.,80.711,-80.711,-5.,78.1488841364731,            51P    142
-78.1488841364731,-2.44794959165131,77.922,-77.922,                   51P    143
-2.44794959165131,83.5,0.,-5.,83.2731158635268,0.,-5.,80.711,0.,      51P    144
-5.,78.1488841364732,0.,-2.44794959165131,77.922,0.,                  51P    145
-2.44794959165131,83.5,83.5,-5.,83.2731158635268,                     51P    146
83.2731158635268,-5.,80.711,80.711,-5.,78.1488841364731,              51P    147
78.1488841364731,-2.44794959165131,77.922,77.922,                     51P    148
-2.44794959165131,0.,83.5,-5.,0.,83.2731158635268,-5.,0.,80.711,      51P    149
-5.,0.,78.1488841364732,-2.44794959165131,0.,77.922,                  51P    150
-3.05292308264618,-0.0886695709436149,-3.14159265358979,              51P    151
3.14159265358979;                                                     51P    152
128,1,8,1,2,0,1,0,0,0,-0.0146583807883312,-0.0146583807883312,        53P    153
0.0146583807883312,0.0146583807883312,-3.14159265358979,              53P    154
-3.14159265358979,-3.14159265358979,-1.5707963267949,                 53P    155
-1.5707963267949,0.,0.,1.5707963267949,1.5707963267949,               53P    156
3.14159265358979,3.14159265358979,3.14159265358979,1.,1.,             53P    157
0.707106781186548,0.707106781186548,1.,1.,0.707106781186548,          53P    158
0.707106781186548,1.,1.,0.707106781186548,0.707106781186548,1.,       53P    159
1.,0.707106781186548,0.707106781186548,1.,1.,                         53P    160
-1.38777878078145D-16,-83.5,0.,-2.44794959165132,-83.5,0.,            53P    161
-1.38777878078145D-16,-83.5,-83.5,-2.44794959165132,-83.5,-83.5,      53P    162
-1.38777878078145D-16,0.,-83.5,-2.44794959165132,0.,-83.5,            53P    163
-1.38777878078145D-16,83.5,-83.5,-2.44794959165132,83.5,-83.5,        53P    164
-1.38777878078145D-16,83.5,0.,-2.44794959165132,83.5,0.,              53P    165
-1.38777878078145D-16,83.5,83.5,-2.44794959165132,83.5,83.5,          53P    166
-1.38777878078145D-16,0.,83.5,-2.44794959165132,0.,83.5,              53P    167
-1.38777878078145D-16,-83.5,83.5,-2.44794959165132,-83.5,83.5,        53P    168
-1.38777878078145D-16,-83.5,0.,-2.44794959165132,-83.5,0.,            53P    169
-0.0146583807883312,0.0146583807883312,-3.14159265358979,             53P    170
3.14159265358979;                                                     53P    171
128,1,1,1,1,0,0,1,0,0,-8.35,-8.35,8.35,8.35,-16.1422,-16.1422,        55P    172
0.5578,0.5578,1.,1.,1.,1.,0.,-83.5,83.5,0.,-83.5,-83.5,0.,83.5,       55P    173
83.5,0.,83.5,-83.5,-8.35,8.35,-16.1422,0.5578;                        55P    174
502,10,0.,77.922,0.,0.,-77.922,0.,-2.44794959165132,-77.922,0.,       57P    175
-2.44794959165131,0.,77.922,-2.44794959165132,77.922,0.,              57P    176
-2.44794959165132,83.5,0.,-2.44794959165131,0.,83.5,                  57P    177
-2.44794959165132,-83.5,0.,0.,83.5,0.,-1.38777878078145D-16,          57P    178
-83.5,0.;                                                             57P    179
504,13,23,57,1,57,2,25,57,2,57,3,27,57,4,57,3,29,57,5,57,4,31,        59P    180
57,3,57,5,33,57,2,57,1,35,57,6,57,7,37,57,8,57,6,39,57,7,57,8,        59P    181
41,57,7,57,4,43,57,9,57,10,45,57,10,57,9,47,57,10,57,8;               59P    182
406,1,8HTěleso1;                                                     61P    183
314,0.,60.,80.,;                                                      63P    184
S      1G      4D     64P    184                                        T      1
