ISO-10303-21;
HEADER;
/* Generated by software containing ST-Developer
 * from STEP Tools, Inc. (www.steptools.com) 
 */

FILE_DESCRIPTION(
/* description */ ('T\X2\011B\X0\sn\X2\011B\X0\n\X\ED \X2\0161\X0\roub
en\X\ED T - dle DIN'),
/* implementation_level */ '2;1');

FILE_NAME(
/* name */ 
'C:\\Vault_Workspace\\DATA\\Katalog Bupospol\\2 Potrubn\X\ED d\X\EDly\\
2.0 \X2\0160\X0\rouben\X\ED\\20040\\20040\\20040080000.stp',
/* time_stamp */ '2015-06-12T10:58:08+02:00',
/* author */ ('Struska'),
/* organization */ ('Bupospol, Armaturka Koukol spol. s r.o.'),
/* preprocessor_version */ 'ST-DEVELOPER v15.6',
/* originating_system */ 'Autodesk Inventor 2015',
/* authorisation */ '');

FILE_SCHEMA (('CONFIG_CONTROL_DESIGN'));
ENDSEC;

DATA;
#10=MECHANICAL_DESIGN_GEOMETRIC_PRESENTATION_REPRESENTATION('',(#57,#56,
#58,#54,#55),#107);
#11=SHAPE_REPRESENTATION_RELATIONSHIP('SRR','None',#116,#12);
#12=ADVANCED_BREP_SHAPE_REPRESENTATION($,(#13),#106);
#13=MANIFOLD_SOLID_BREP('T\X2\011B\X0\leso1',#63);
#14=PLANE('',#72);
#15=TOROIDAL_SURFACE('',#68,45.,2.8);
#16=FACE_BOUND('',#25,.T.);
#17=FACE_BOUND('',#27,.T.);
#18=FACE_BOUND('',#29,.T.);
#19=FACE_BOUND('',#31,.T.);
#20=FACE_OUTER_BOUND('',#24,.T.);
#21=FACE_OUTER_BOUND('',#26,.T.);
#22=FACE_OUTER_BOUND('',#28,.T.);
#23=FACE_OUTER_BOUND('',#30,.T.);
#24=EDGE_LOOP('',(#44));
#25=EDGE_LOOP('',(#45));
#26=EDGE_LOOP('',(#46));
#27=EDGE_LOOP('',(#47));
#28=EDGE_LOOP('',(#48));
#29=EDGE_LOOP('',(#49));
#30=EDGE_LOOP('',(#50));
#31=EDGE_LOOP('',(#51));
#32=CIRCLE('',#66,42.5);
#33=CIRCLE('',#67,42.5);
#34=CIRCLE('',#69,47.5);
#35=CIRCLE('',#71,47.5);
#36=VERTEX_POINT('',#93);
#37=VERTEX_POINT('',#95);
#38=VERTEX_POINT('',#98);
#39=VERTEX_POINT('',#101);
#40=EDGE_CURVE('',#36,#36,#32,.T.);
#41=EDGE_CURVE('',#37,#37,#33,.T.);
#42=EDGE_CURVE('',#38,#38,#34,.T.);
#43=EDGE_CURVE('',#39,#39,#35,.T.);
#44=ORIENTED_EDGE('',*,*,#40,.F.);
#45=ORIENTED_EDGE('',*,*,#41,.T.);
#46=ORIENTED_EDGE('',*,*,#42,.F.);
#47=ORIENTED_EDGE('',*,*,#40,.T.);
#48=ORIENTED_EDGE('',*,*,#43,.F.);
#49=ORIENTED_EDGE('',*,*,#42,.T.);
#50=ORIENTED_EDGE('',*,*,#43,.T.);
#51=ORIENTED_EDGE('',*,*,#41,.F.);
#52=CYLINDRICAL_SURFACE('',#65,42.5);
#53=CYLINDRICAL_SURFACE('',#70,47.5);
#54=STYLED_ITEM('',(#125),#59);
#55=STYLED_ITEM('',(#125),#60);
#56=STYLED_ITEM('',(#125),#61);
#57=STYLED_ITEM('',(#125),#62);
#58=STYLED_ITEM('',(#125),#13);
#59=ADVANCED_FACE('',(#20,#16),#52,.F.);
#60=ADVANCED_FACE('',(#21,#17),#15,.T.);
#61=ADVANCED_FACE('',(#22,#18),#53,.T.);
#62=ADVANCED_FACE('',(#23,#19),#14,.T.);
#63=CLOSED_SHELL('',(#59,#60,#61,#62));
#64=AXIS2_PLACEMENT_3D('placement',#91,#73,#74);
#65=AXIS2_PLACEMENT_3D('',#92,#75,#76);
#66=AXIS2_PLACEMENT_3D('',#94,#77,#78);
#67=AXIS2_PLACEMENT_3D('',#96,#79,#80);
#68=AXIS2_PLACEMENT_3D('',#97,#81,#82);
#69=AXIS2_PLACEMENT_3D('',#99,#83,#84);
#70=AXIS2_PLACEMENT_3D('',#100,#85,#86);
#71=AXIS2_PLACEMENT_3D('',#102,#87,#88);
#72=AXIS2_PLACEMENT_3D('',#103,#89,#90);
#73=DIRECTION('axis',(0.,0.,1.));
#74=DIRECTION('refdir',(1.,0.,0.));
#75=DIRECTION('center_axis',(1.,0.,0.));
#76=DIRECTION('ref_axis',(0.,1.,0.));
#77=DIRECTION('center_axis',(1.,0.,0.));
#78=DIRECTION('ref_axis',(0.,0.,-1.));
#79=DIRECTION('center_axis',(1.,0.,0.));
#80=DIRECTION('ref_axis',(0.,0.,-1.));
#81=DIRECTION('center_axis',(1.,0.,0.));
#82=DIRECTION('ref_axis',(0.,0.,-1.));
#83=DIRECTION('center_axis',(1.,0.,0.));
#84=DIRECTION('ref_axis',(0.,0.,-1.));
#85=DIRECTION('center_axis',(1.,0.,0.));
#86=DIRECTION('ref_axis',(0.,1.,0.));
#87=DIRECTION('center_axis',(1.,0.,0.));
#88=DIRECTION('ref_axis',(0.,0.,-1.));
#89=DIRECTION('center_axis',(1.,0.,0.));
#90=DIRECTION('ref_axis',(0.,0.,-1.));
#91=CARTESIAN_POINT('',(0.,0.,0.));
#92=CARTESIAN_POINT('Origin',(-1.73047601064592,0.,0.));
#93=CARTESIAN_POINT('',(-3.46095202129185,42.5,0.));
#94=CARTESIAN_POINT('Origin',(-3.46095202129185,0.,0.));
#95=CARTESIAN_POINT('',(0.,42.5,0.));
#96=CARTESIAN_POINT('Origin',(0.,0.,0.));
#97=CARTESIAN_POINT('Origin',(-2.2,0.,0.));
#98=CARTESIAN_POINT('',(-3.46095202129185,47.5,0.));
#99=CARTESIAN_POINT('Origin',(-3.46095202129185,0.,0.));
#100=CARTESIAN_POINT('Origin',(-1.73047601064592,0.,0.));
#101=CARTESIAN_POINT('',(0.,47.5,0.));
#102=CARTESIAN_POINT('Origin',(0.,0.,0.));
#103=CARTESIAN_POINT('Origin',(0.,42.5,0.));
#104=UNCERTAINTY_MEASURE_WITH_UNIT(LENGTH_MEASURE(0.01),#108,
'DISTANCE_ACCURACY_VALUE',
'Maximum model space distance between geometric entities at asserted c
onnectivities');
#105=UNCERTAINTY_MEASURE_WITH_UNIT(LENGTH_MEASURE(1.E-6),#108,
'DISTANCE_ACCURACY_VALUE',
'Maximum model space distance between geometric entities at asserted c
onnectivities');
#106=(
GEOMETRIC_REPRESENTATION_CONTEXT(3)
GLOBAL_UNCERTAINTY_ASSIGNED_CONTEXT((#104))
GLOBAL_UNIT_ASSIGNED_CONTEXT((#108,#111,#109))
REPRESENTATION_CONTEXT('','3D')
);
#107=(
GEOMETRIC_REPRESENTATION_CONTEXT(3)
GLOBAL_UNCERTAINTY_ASSIGNED_CONTEXT((#105))
GLOBAL_UNIT_ASSIGNED_CONTEXT((#108,#111,#109))
REPRESENTATION_CONTEXT('','3D')
);
#108=(
LENGTH_UNIT()
NAMED_UNIT(*)
SI_UNIT(.MILLI.,.METRE.)
);
#109=(
NAMED_UNIT(*)
SI_UNIT($,.STERADIAN.)
SOLID_ANGLE_UNIT()
);
#110=DIMENSIONAL_EXPONENTS(0.,0.,0.,0.,0.,0.,0.);
#111=(
CONVERSION_BASED_UNIT('degree',#113)
NAMED_UNIT(#110)
PLANE_ANGLE_UNIT()
);
#112=(
NAMED_UNIT(*)
PLANE_ANGLE_UNIT()
SI_UNIT($,.RADIAN.)
);
#113=PLANE_ANGLE_MEASURE_WITH_UNIT(PLANE_ANGLE_MEASURE(0.01745329252),#112);
#114=SHAPE_DEFINITION_REPRESENTATION(#115,#116);
#115=PRODUCT_DEFINITION_SHAPE('',$,#118);
#116=SHAPE_REPRESENTATION('',(#64),#106);
#117=DESIGN_CONTEXT('part definition',#122,'design');
#118=PRODUCT_DEFINITION('20040080000','20040080000',#119,#117);
#119=PRODUCT_DEFINITION_FORMATION('',$,#124);
#120=PRODUCT_RELATED_PRODUCT_CATEGORY('20040080000','20040080000',(#124));
#121=APPLICATION_PROTOCOL_DEFINITION('international standard',
'ap203_configuration_controlled_3d_design_of_mechanical_parts_and_asse
mblies_mim_lf',2004,#122);
#122=APPLICATION_CONTEXT(
'Configuration Controlled 3D Design of Mechanical Parts and Assemblies');
#123=MECHANICAL_CONTEXT('part definition',#122,'mechanical');
#124=PRODUCT('20040080000','20040080000',$,(#123));
#125=PRESENTATION_STYLE_ASSIGNMENT((#126));
#126=SURFACE_STYLE_USAGE(.BOTH.,#127);
#127=SURFACE_SIDE_STYLE($,(#128));
#128=SURFACE_STYLE_FILL_AREA(#129);
#129=FILL_AREA_STYLE($,(#130));
#130=FILL_AREA_STYLE_COLOUR($,#131);
#131=COLOUR_RGB('',0.,0.6,0.8);
ENDSEC;
END-ISO-10303-21;
