ISO-10303-21;
HEADER;
/* Generated by software containing ST-Developer
 * from STEP Tools, Inc. (www.steptools.com) 
 */

FILE_DESCRIPTION(
/* description */ (
'Z\X\E1vitov\X\E9 hrdlo ZH pro p\X2\0159\X0\iva\X2\0159\X0\en\X\ED dle
 DIN silnost\X2\011B\X0\nn\X\E9'),
/* implementation_level */ '2;1');

FILE_NAME(
/* name */ 'C:\\Vault_Workspace\\DATA\\ZAK\X\C1ZKY\\TOPOS a.s\\20102 0
10.stp',
/* time_stamp */ '2015-11-25T13:26:51+01:00',
/* author */ ('Strustka'),
/* organization */ ('Bupospol, Armaturka Koukol, spol. s r.o.'),
/* preprocessor_version */ 'ST-DEVELOPER v15.6',
/* originating_system */ 'Autodesk Inventor 2015',
/* authorisation */ '');

FILE_SCHEMA (('CONFIG_CONTROL_DESIGN'));
ENDSEC;

DATA;
#10=MECHANICAL_DESIGN_GEOMETRIC_PRESENTATION_REPRESENTATION('',(#13),#323);
#11=SHAPE_REPRESENTATION_RELATIONSHIP('SRR','None',#332,#12);
#12=ADVANCED_BREP_SHAPE_REPRESENTATION($,(#14),#322);
#13=STYLED_ITEM('',(#341),#14);
#14=MANIFOLD_SOLID_BREP('T\X2\011B\X0\leso2',#180);
#15=PLANE('',#194);
#16=PLANE('',#199);
#17=PLANE('',#205);
#18=PLANE('',#209);
#19=CYLINDRICAL_SURFACE('',#191,7.5);
#20=CYLINDRICAL_SURFACE('',#198,14.);
#21=CYLINDRICAL_SURFACE('',#203,9.9);
#22=CYLINDRICAL_SURFACE('',#207,6.);
#23=CYLINDRICAL_SURFACE('',#211,5.);
#24=TOROIDAL_SURFACE('',#188,9.1,1.6);
#25=FACE_BOUND('',#56,.T.);
#26=FACE_BOUND('',#58,.T.);
#27=FACE_BOUND('',#60,.T.);
#28=FACE_BOUND('',#62,.T.);
#29=FACE_BOUND('',#64,.T.);
#30=FACE_BOUND('',#66,.T.);
#31=FACE_BOUND('',#68,.T.);
#32=FACE_BOUND('',#70,.T.);
#33=FACE_BOUND('',#72,.T.);
#34=FACE_BOUND('',#74,.T.);
#35=FACE_BOUND('',#76,.T.);
#36=FACE_BOUND('',#78,.T.);
#37=FACE_BOUND('',#80,.T.);
#38=FACE_BOUND('',#82,.T.);
#39=FACE_BOUND('',#84,.T.);
#40=FACE_OUTER_BOUND('',#55,.T.);
#41=FACE_OUTER_BOUND('',#57,.T.);
#42=FACE_OUTER_BOUND('',#59,.T.);
#43=FACE_OUTER_BOUND('',#61,.T.);
#44=FACE_OUTER_BOUND('',#63,.T.);
#45=FACE_OUTER_BOUND('',#65,.T.);
#46=FACE_OUTER_BOUND('',#67,.T.);
#47=FACE_OUTER_BOUND('',#69,.T.);
#48=FACE_OUTER_BOUND('',#71,.T.);
#49=FACE_OUTER_BOUND('',#73,.T.);
#50=FACE_OUTER_BOUND('',#75,.T.);
#51=FACE_OUTER_BOUND('',#77,.T.);
#52=FACE_OUTER_BOUND('',#79,.T.);
#53=FACE_OUTER_BOUND('',#81,.T.);
#54=FACE_OUTER_BOUND('',#83,.T.);
#55=EDGE_LOOP('',(#130));
#56=EDGE_LOOP('',(#131));
#57=EDGE_LOOP('',(#132));
#58=EDGE_LOOP('',(#133));
#59=EDGE_LOOP('',(#134));
#60=EDGE_LOOP('',(#135));
#61=EDGE_LOOP('',(#136));
#62=EDGE_LOOP('',(#137));
#63=EDGE_LOOP('',(#138));
#64=EDGE_LOOP('',(#139));
#65=EDGE_LOOP('',(#140));
#66=EDGE_LOOP('',(#141));
#67=EDGE_LOOP('',(#142));
#68=EDGE_LOOP('',(#143));
#69=EDGE_LOOP('',(#144));
#70=EDGE_LOOP('',(#145));
#71=EDGE_LOOP('',(#146));
#72=EDGE_LOOP('',(#147));
#73=EDGE_LOOP('',(#148));
#74=EDGE_LOOP('',(#149));
#75=EDGE_LOOP('',(#150));
#76=EDGE_LOOP('',(#151));
#77=EDGE_LOOP('',(#152));
#78=EDGE_LOOP('',(#153));
#79=EDGE_LOOP('',(#154));
#80=EDGE_LOOP('',(#155));
#81=EDGE_LOOP('',(#156));
#82=EDGE_LOOP('',(#157));
#83=EDGE_LOOP('',(#158));
#84=EDGE_LOOP('',(#159));
#85=CIRCLE('',#183,12.2348886131471);
#86=CIRCLE('',#184,14.);
#87=CIRCLE('',#186,12.5);
#88=CIRCLE('',#187,14.);
#89=CIRCLE('',#189,7.5);
#90=CIRCLE('',#190,8.82216291573291);
#91=CIRCLE('',#192,7.5);
#92=CIRCLE('',#195,6.);
#93=CIRCLE('',#196,5.);
#94=CIRCLE('',#200,10.9717967697245);
#95=CIRCLE('',#202,9.9);
#96=CIRCLE('',#204,9.9);
#97=CIRCLE('',#206,6.);
#98=CIRCLE('',#208,6.);
#99=CIRCLE('',#210,5.);
#100=VERTEX_POINT('',#276);
#101=VERTEX_POINT('',#278);
#102=VERTEX_POINT('',#281);
#103=VERTEX_POINT('',#283);
#104=VERTEX_POINT('',#286);
#105=VERTEX_POINT('',#288);
#106=VERTEX_POINT('',#291);
#107=VERTEX_POINT('',#295);
#108=VERTEX_POINT('',#297);
#109=VERTEX_POINT('',#302);
#110=VERTEX_POINT('',#305);
#111=VERTEX_POINT('',#308);
#112=VERTEX_POINT('',#311);
#113=VERTEX_POINT('',#314);
#114=VERTEX_POINT('',#317);
#115=EDGE_CURVE('',#100,#100,#85,.T.);
#116=EDGE_CURVE('',#101,#101,#86,.T.);
#117=EDGE_CURVE('',#102,#102,#87,.T.);
#118=EDGE_CURVE('',#103,#103,#88,.T.);
#119=EDGE_CURVE('',#104,#104,#89,.T.);
#120=EDGE_CURVE('',#105,#105,#90,.T.);
#121=EDGE_CURVE('',#106,#106,#91,.T.);
#122=EDGE_CURVE('',#107,#107,#92,.T.);
#123=EDGE_CURVE('',#108,#108,#93,.T.);
#124=EDGE_CURVE('',#109,#109,#94,.T.);
#125=EDGE_CURVE('',#110,#110,#95,.T.);
#126=EDGE_CURVE('',#111,#111,#96,.T.);
#127=EDGE_CURVE('',#112,#112,#97,.T.);
#128=EDGE_CURVE('',#113,#113,#98,.T.);
#129=EDGE_CURVE('',#114,#114,#99,.T.);
#130=ORIENTED_EDGE('',*,*,#115,.F.);
#131=ORIENTED_EDGE('',*,*,#116,.F.);
#132=ORIENTED_EDGE('',*,*,#117,.F.);
#133=ORIENTED_EDGE('',*,*,#118,.F.);
#134=ORIENTED_EDGE('',*,*,#119,.T.);
#135=ORIENTED_EDGE('',*,*,#120,.T.);
#136=ORIENTED_EDGE('',*,*,#121,.T.);
#137=ORIENTED_EDGE('',*,*,#119,.F.);
#138=ORIENTED_EDGE('',*,*,#115,.T.);
#139=ORIENTED_EDGE('',*,*,#120,.F.);
#140=ORIENTED_EDGE('',*,*,#122,.F.);
#141=ORIENTED_EDGE('',*,*,#123,.T.);
#142=ORIENTED_EDGE('',*,*,#122,.T.);
#143=ORIENTED_EDGE('',*,*,#121,.F.);
#144=ORIENTED_EDGE('',*,*,#116,.T.);
#145=ORIENTED_EDGE('',*,*,#118,.T.);
#146=ORIENTED_EDGE('',*,*,#117,.T.);
#147=ORIENTED_EDGE('',*,*,#124,.F.);
#148=ORIENTED_EDGE('',*,*,#124,.T.);
#149=ORIENTED_EDGE('',*,*,#125,.F.);
#150=ORIENTED_EDGE('',*,*,#125,.T.);
#151=ORIENTED_EDGE('',*,*,#126,.F.);
#152=ORIENTED_EDGE('',*,*,#126,.T.);
#153=ORIENTED_EDGE('',*,*,#127,.F.);
#154=ORIENTED_EDGE('',*,*,#127,.T.);
#155=ORIENTED_EDGE('',*,*,#128,.F.);
#156=ORIENTED_EDGE('',*,*,#128,.T.);
#157=ORIENTED_EDGE('',*,*,#129,.F.);
#158=ORIENTED_EDGE('',*,*,#129,.T.);
#159=ORIENTED_EDGE('',*,*,#123,.F.);
#160=CONICAL_SURFACE('',#182,12.25,45.0000000000001);
#161=CONICAL_SURFACE('',#185,12.25,45.);
#162=CONICAL_SURFACE('',#193,10.6192050007897,80.0000000000001);
#163=CONICAL_SURFACE('',#197,6.75,59.9999999999998);
#164=CONICAL_SURFACE('',#201,10.4358983848623,15.0000000000001);
#165=ADVANCED_FACE('',(#40,#25),#160,.T.);
#166=ADVANCED_FACE('',(#41,#26),#161,.T.);
#167=ADVANCED_FACE('',(#42,#27),#24,.F.);
#168=ADVANCED_FACE('',(#43,#28),#19,.T.);
#169=ADVANCED_FACE('',(#44,#29),#162,.T.);
#170=ADVANCED_FACE('',(#45,#30),#15,.T.);
#171=ADVANCED_FACE('',(#46,#31),#163,.T.);
#172=ADVANCED_FACE('',(#47,#32),#20,.T.);
#173=ADVANCED_FACE('',(#48,#33),#16,.T.);
#174=ADVANCED_FACE('',(#49,#34),#164,.F.);
#175=ADVANCED_FACE('',(#50,#35),#21,.F.);
#176=ADVANCED_FACE('',(#51,#36),#17,.T.);
#177=ADVANCED_FACE('',(#52,#37),#22,.T.);
#178=ADVANCED_FACE('',(#53,#38),#18,.T.);
#179=ADVANCED_FACE('',(#54,#39),#23,.F.);
#180=CLOSED_SHELL('',(#165,#166,#167,#168,#169,#170,#171,#172,#173,#174,
#175,#176,#177,#178,#179));
#181=AXIS2_PLACEMENT_3D('placement',#274,#212,#213);
#182=AXIS2_PLACEMENT_3D('',#275,#214,#215);
#183=AXIS2_PLACEMENT_3D('',#277,#216,#217);
#184=AXIS2_PLACEMENT_3D('',#279,#218,#219);
#185=AXIS2_PLACEMENT_3D('',#280,#220,#221);
#186=AXIS2_PLACEMENT_3D('',#282,#222,#223);
#187=AXIS2_PLACEMENT_3D('',#284,#224,#225);
#188=AXIS2_PLACEMENT_3D('',#285,#226,#227);
#189=AXIS2_PLACEMENT_3D('',#287,#228,#229);
#190=AXIS2_PLACEMENT_3D('',#289,#230,#231);
#191=AXIS2_PLACEMENT_3D('',#290,#232,#233);
#192=AXIS2_PLACEMENT_3D('',#292,#234,#235);
#193=AXIS2_PLACEMENT_3D('',#293,#236,#237);
#194=AXIS2_PLACEMENT_3D('',#294,#238,#239);
#195=AXIS2_PLACEMENT_3D('',#296,#240,#241);
#196=AXIS2_PLACEMENT_3D('',#298,#242,#243);
#197=AXIS2_PLACEMENT_3D('',#299,#244,#245);
#198=AXIS2_PLACEMENT_3D('',#300,#246,#247);
#199=AXIS2_PLACEMENT_3D('',#301,#248,#249);
#200=AXIS2_PLACEMENT_3D('',#303,#250,#251);
#201=AXIS2_PLACEMENT_3D('',#304,#252,#253);
#202=AXIS2_PLACEMENT_3D('',#306,#254,#255);
#203=AXIS2_PLACEMENT_3D('',#307,#256,#257);
#204=AXIS2_PLACEMENT_3D('',#309,#258,#259);
#205=AXIS2_PLACEMENT_3D('',#310,#260,#261);
#206=AXIS2_PLACEMENT_3D('',#312,#262,#263);
#207=AXIS2_PLACEMENT_3D('',#313,#264,#265);
#208=AXIS2_PLACEMENT_3D('',#315,#266,#267);
#209=AXIS2_PLACEMENT_3D('',#316,#268,#269);
#210=AXIS2_PLACEMENT_3D('',#318,#270,#271);
#211=AXIS2_PLACEMENT_3D('',#319,#272,#273);
#212=DIRECTION('axis',(0.,0.,1.));
#213=DIRECTION('refdir',(1.,0.,0.));
#214=DIRECTION('center_axis',(1.,0.,0.));
#215=DIRECTION('ref_axis',(0.,1.,0.));
#216=DIRECTION('center_axis',(-1.,0.,0.));
#217=DIRECTION('ref_axis',(0.,1.,0.));
#218=DIRECTION('center_axis',(1.,0.,0.));
#219=DIRECTION('ref_axis',(0.,1.,0.));
#220=DIRECTION('center_axis',(-1.,0.,0.));
#221=DIRECTION('ref_axis',(0.,1.,0.));
#222=DIRECTION('center_axis',(1.,0.,0.));
#223=DIRECTION('ref_axis',(0.,1.,0.));
#224=DIRECTION('center_axis',(-1.,0.,0.));
#225=DIRECTION('ref_axis',(0.,1.,0.));
#226=DIRECTION('center_axis',(1.,0.,0.));
#227=DIRECTION('ref_axis',(0.,0.,-1.));
#228=DIRECTION('center_axis',(1.,0.,0.));
#229=DIRECTION('ref_axis',(0.,-1.,1.83697019872103E-16));
#230=DIRECTION('center_axis',(-1.,0.,0.));
#231=DIRECTION('ref_axis',(0.,-1.,3.06161699786838E-17));
#232=DIRECTION('center_axis',(1.,0.,0.));
#233=DIRECTION('ref_axis',(0.,1.,0.));
#234=DIRECTION('center_axis',(1.,0.,0.));
#235=DIRECTION('ref_axis',(0.,0.,-1.));
#236=DIRECTION('center_axis',(1.,0.,0.));
#237=DIRECTION('ref_axis',(0.,1.,0.));
#238=DIRECTION('center_axis',(-1.,0.,0.));
#239=DIRECTION('ref_axis',(0.,0.,1.));
#240=DIRECTION('center_axis',(1.,0.,0.));
#241=DIRECTION('ref_axis',(0.,0.,-1.));
#242=DIRECTION('center_axis',(1.,0.,0.));
#243=DIRECTION('ref_axis',(0.,0.,-1.));
#244=DIRECTION('center_axis',(1.,0.,0.));
#245=DIRECTION('ref_axis',(0.,1.,0.));
#246=DIRECTION('center_axis',(1.,0.,0.));
#247=DIRECTION('ref_axis',(0.,1.,0.));
#248=DIRECTION('center_axis',(1.,0.,0.));
#249=DIRECTION('ref_axis',(0.,0.,-1.));
#250=DIRECTION('center_axis',(1.,0.,0.));
#251=DIRECTION('ref_axis',(0.,0.,-1.));
#252=DIRECTION('center_axis',(1.,0.,0.));
#253=DIRECTION('ref_axis',(0.,1.,0.));
#254=DIRECTION('center_axis',(1.,0.,0.));
#255=DIRECTION('ref_axis',(0.,0.,-1.));
#256=DIRECTION('center_axis',(1.,0.,0.));
#257=DIRECTION('ref_axis',(0.,1.,0.));
#258=DIRECTION('center_axis',(1.,0.,0.));
#259=DIRECTION('ref_axis',(0.,0.,-1.));
#260=DIRECTION('center_axis',(1.,0.,0.));
#261=DIRECTION('ref_axis',(0.,0.,-1.));
#262=DIRECTION('center_axis',(1.,0.,0.));
#263=DIRECTION('ref_axis',(0.,0.,-1.));
#264=DIRECTION('center_axis',(1.,0.,0.));
#265=DIRECTION('ref_axis',(0.,1.,0.));
#266=DIRECTION('center_axis',(1.,0.,0.));
#267=DIRECTION('ref_axis',(0.,0.,-1.));
#268=DIRECTION('center_axis',(1.,0.,0.));
#269=DIRECTION('ref_axis',(0.,0.,-1.));
#270=DIRECTION('center_axis',(1.,0.,0.));
#271=DIRECTION('ref_axis',(0.,0.,-1.));
#272=DIRECTION('center_axis',(1.,0.,0.));
#273=DIRECTION('ref_axis',(0.,1.,0.));
#274=CARTESIAN_POINT('',(0.,0.,0.));
#275=CARTESIAN_POINT('Origin',(-12.25,0.,0.));
#276=CARTESIAN_POINT('',(-12.2651113868529,-12.2348886131471,1.4983417178015E-15));
#277=CARTESIAN_POINT('Origin',(-12.2651113868529,0.,0.));
#278=CARTESIAN_POINT('',(-10.5,14.,0.));
#279=CARTESIAN_POINT('Origin',(-10.5,0.,0.));
#280=CARTESIAN_POINT('Origin',(0.249999999999995,0.,0.));
#281=CARTESIAN_POINT('',(-2.4980018054066E-15,-12.5,-1.53080849893419E-15));
#282=CARTESIAN_POINT('Origin',(-2.4980018054066E-15,0.,0.));
#283=CARTESIAN_POINT('',(-1.5,14.,0.));
#284=CARTESIAN_POINT('Origin',(-1.50000000000001,0.,0.));
#285=CARTESIAN_POINT('Origin',(-14.4425594098837,0.,0.));
#286=CARTESIAN_POINT('',(-14.4425594098837,7.5,-4.59242549680258E-16));
#287=CARTESIAN_POINT('Origin',(-14.4425594098837,0.,0.));
#288=CARTESIAN_POINT('',(-12.8668670050641,8.82216291573291,-2.7010083940772E-15));
#289=CARTESIAN_POINT('Origin',(-12.8668670050641,0.,-1.3505041970386E-15));
#290=CARTESIAN_POINT('Origin',(-16.6169872981078,0.,0.));
#291=CARTESIAN_POINT('',(-20.1339745962156,7.5,0.));
#292=CARTESIAN_POINT('Origin',(-20.1339745962156,0.,0.));
#293=CARTESIAN_POINT('Origin',(-12.55,0.,0.));
#294=CARTESIAN_POINT('Origin',(-21.,6.,0.));
#295=CARTESIAN_POINT('',(-21.,6.,0.));
#296=CARTESIAN_POINT('Origin',(-21.,0.,0.));
#297=CARTESIAN_POINT('',(-21.,5.,0.));
#298=CARTESIAN_POINT('Origin',(-21.,0.,0.));
#299=CARTESIAN_POINT('Origin',(-20.5669872981078,0.,0.));
#300=CARTESIAN_POINT('Origin',(-6.00000000000001,0.,0.));
#301=CARTESIAN_POINT('Origin',(-2.49342194396821E-15,10.9717967697245,0.));
#302=CARTESIAN_POINT('',(-2.49342194396821E-15,10.9717967697245,0.));
#303=CARTESIAN_POINT('Origin',(-2.22044604925031E-15,0.,0.));
#304=CARTESIAN_POINT('Origin',(-2.,0.,0.));
#305=CARTESIAN_POINT('',(-4.,9.9,0.));
#306=CARTESIAN_POINT('Origin',(-4.,0.,0.));
#307=CARTESIAN_POINT('Origin',(-5.5,0.,0.));
#308=CARTESIAN_POINT('',(-7.,9.9,0.));
#309=CARTESIAN_POINT('Origin',(-7.,0.,0.));
#310=CARTESIAN_POINT('Origin',(-7.,6.,0.));
#311=CARTESIAN_POINT('',(-7.,6.,0.));
#312=CARTESIAN_POINT('Origin',(-7.,0.,0.));
#313=CARTESIAN_POINT('Origin',(-5.5,0.,0.));
#314=CARTESIAN_POINT('',(-4.,6.,0.));
#315=CARTESIAN_POINT('Origin',(-4.,0.,0.));
#316=CARTESIAN_POINT('Origin',(-4.,5.,0.));
#317=CARTESIAN_POINT('',(-4.,5.,0.));
#318=CARTESIAN_POINT('Origin',(-4.,0.,0.));
#319=CARTESIAN_POINT('Origin',(-12.5,0.,0.));
#320=UNCERTAINTY_MEASURE_WITH_UNIT(LENGTH_MEASURE(0.01),#324,
'DISTANCE_ACCURACY_VALUE',
'Maximum model space distance between geometric entities at asserted c
onnectivities');
#321=UNCERTAINTY_MEASURE_WITH_UNIT(LENGTH_MEASURE(1.E-6),#324,
'DISTANCE_ACCURACY_VALUE',
'Maximum model space distance between geometric entities at asserted c
onnectivities');
#322=(
GEOMETRIC_REPRESENTATION_CONTEXT(3)
GLOBAL_UNCERTAINTY_ASSIGNED_CONTEXT((#320))
GLOBAL_UNIT_ASSIGNED_CONTEXT((#324,#327,#325))
REPRESENTATION_CONTEXT('','3D')
);
#323=(
GEOMETRIC_REPRESENTATION_CONTEXT(3)
GLOBAL_UNCERTAINTY_ASSIGNED_CONTEXT((#321))
GLOBAL_UNIT_ASSIGNED_CONTEXT((#324,#327,#325))
REPRESENTATION_CONTEXT('','3D')
);
#324=(
LENGTH_UNIT()
NAMED_UNIT(*)
SI_UNIT(.MILLI.,.METRE.)
);
#325=(
NAMED_UNIT(*)
SI_UNIT($,.STERADIAN.)
SOLID_ANGLE_UNIT()
);
#326=DIMENSIONAL_EXPONENTS(0.,0.,0.,0.,0.,0.,0.);
#327=(
CONVERSION_BASED_UNIT('degree',#329)
NAMED_UNIT(#326)
PLANE_ANGLE_UNIT()
);
#328=(
NAMED_UNIT(*)
PLANE_ANGLE_UNIT()
SI_UNIT($,.RADIAN.)
);
#329=PLANE_ANGLE_MEASURE_WITH_UNIT(PLANE_ANGLE_MEASURE(0.01745329252),#328);
#330=SHAPE_DEFINITION_REPRESENTATION(#331,#332);
#331=PRODUCT_DEFINITION_SHAPE('',$,#334);
#332=SHAPE_REPRESENTATION('',(#181),#322);
#333=DESIGN_CONTEXT('part definition',#338,'design');
#334=PRODUCT_DEFINITION('20102','20102',#335,#333);
#335=PRODUCT_DEFINITION_FORMATION('',$,#340);
#336=PRODUCT_RELATED_PRODUCT_CATEGORY('20102','20102',(#340));
#337=APPLICATION_PROTOCOL_DEFINITION('international standard',
'ap203_configuration_controlled_3d_design_of_mechanical_parts_and_asse
mblies_mim_lf',2004,#338);
#338=APPLICATION_CONTEXT(
'Configuration Controlled 3D Design of Mechanical Parts and Assemblies');
#339=MECHANICAL_CONTEXT('part definition',#338,'mechanical');
#340=PRODUCT('20102','20102',$,(#339));
#341=PRESENTATION_STYLE_ASSIGNMENT((#342));
#342=SURFACE_STYLE_USAGE(.BOTH.,#343);
#343=SURFACE_SIDE_STYLE($,(#344));
#344=SURFACE_STYLE_FILL_AREA(#345);
#345=FILL_AREA_STYLE($,(#346));
#346=FILL_AREA_STYLE_COLOUR($,#347);
#347=COLOUR_RGB('',0.745098039215686,0.737254901960784,0.729411764705882);
ENDSEC;
END-ISO-10303-21;
