ISO-10303-21;
HEADER;
/* Generated by software containing ST-Developer
 * from STEP Tools, Inc. (www.steptools.com) 
 */

FILE_DESCRIPTION(
/* description */ ('Z\X\E1vitov\X\E9 hrdlo ZH Bupospol'),
/* implementation_level */ '2;1');

FILE_NAME(
/* name */ 
'C:\\Vault_Workspace\\DATA\\Katalog Bupospol\\2 Potrubn\X\ED d\X\EDly\\
2.0 \X2\0160\X0\rouben\X\ED\\20103\\20103\\20103040000.stp',
/* time_stamp */ '2016-03-01T10:34:15+01:00',
/* author */ ('Struska'),
/* organization */ ('BUPOSOL'),
/* preprocessor_version */ 'ST-DEVELOPER v15.6',
/* originating_system */ 'Autodesk Inventor 2015',
/* authorisation */ '');

FILE_SCHEMA (('CONFIG_CONTROL_DESIGN'));
ENDSEC;

DATA;
#10=MECHANICAL_DESIGN_GEOMETRIC_PRESENTATION_REPRESENTATION('',(#167,#154,
#168,#157,#163,#160,#159,#162,#158,#155,#161,#165,#164,#166,#156),#317);
#11=SHAPE_REPRESENTATION_RELATIONSHIP('SRR','None',#326,#12);
#12=ADVANCED_BREP_SHAPE_REPRESENTATION($,(#13),#316);
#13=MANIFOLD_SOLID_BREP('T\X2\011B\X0\leso1',#183);
#14=TOROIDAL_SURFACE('',#196,24.,2.5);
#15=PLANE('',#190);
#16=PLANE('',#194);
#17=PLANE('',#200);
#18=PLANE('',#206);
#19=PLANE('',#210);
#20=CYLINDRICAL_SURFACE('',#188,32.5);
#21=CYLINDRICAL_SURFACE('',#198,21.5);
#22=CYLINDRICAL_SURFACE('',#204,25.9);
#23=CYLINDRICAL_SURFACE('',#208,21.);
#24=CYLINDRICAL_SURFACE('',#212,19.);
#25=FACE_BOUND('',#54,.T.);
#26=FACE_BOUND('',#56,.T.);
#27=FACE_BOUND('',#58,.T.);
#28=FACE_BOUND('',#60,.T.);
#29=FACE_BOUND('',#62,.T.);
#30=FACE_BOUND('',#64,.T.);
#31=FACE_BOUND('',#66,.T.);
#32=FACE_BOUND('',#68,.T.);
#33=FACE_BOUND('',#70,.T.);
#34=FACE_BOUND('',#72,.T.);
#35=FACE_BOUND('',#74,.T.);
#36=FACE_BOUND('',#76,.T.);
#37=FACE_BOUND('',#78,.T.);
#38=FACE_BOUND('',#80,.T.);
#39=FACE_OUTER_BOUND('',#53,.T.);
#40=FACE_OUTER_BOUND('',#55,.T.);
#41=FACE_OUTER_BOUND('',#57,.T.);
#42=FACE_OUTER_BOUND('',#59,.T.);
#43=FACE_OUTER_BOUND('',#61,.T.);
#44=FACE_OUTER_BOUND('',#63,.T.);
#45=FACE_OUTER_BOUND('',#65,.T.);
#46=FACE_OUTER_BOUND('',#67,.T.);
#47=FACE_OUTER_BOUND('',#69,.T.);
#48=FACE_OUTER_BOUND('',#71,.T.);
#49=FACE_OUTER_BOUND('',#73,.T.);
#50=FACE_OUTER_BOUND('',#75,.T.);
#51=FACE_OUTER_BOUND('',#77,.T.);
#52=FACE_OUTER_BOUND('',#79,.T.);
#53=EDGE_LOOP('',(#123));
#54=EDGE_LOOP('',(#124));
#55=EDGE_LOOP('',(#125));
#56=EDGE_LOOP('',(#126));
#57=EDGE_LOOP('',(#127));
#58=EDGE_LOOP('',(#128));
#59=EDGE_LOOP('',(#129));
#60=EDGE_LOOP('',(#130));
#61=EDGE_LOOP('',(#131));
#62=EDGE_LOOP('',(#132));
#63=EDGE_LOOP('',(#133));
#64=EDGE_LOOP('',(#134));
#65=EDGE_LOOP('',(#135));
#66=EDGE_LOOP('',(#136));
#67=EDGE_LOOP('',(#137));
#68=EDGE_LOOP('',(#138));
#69=EDGE_LOOP('',(#139));
#70=EDGE_LOOP('',(#140));
#71=EDGE_LOOP('',(#141));
#72=EDGE_LOOP('',(#142));
#73=EDGE_LOOP('',(#143));
#74=EDGE_LOOP('',(#144));
#75=EDGE_LOOP('',(#145));
#76=EDGE_LOOP('',(#146));
#77=EDGE_LOOP('',(#147));
#78=EDGE_LOOP('',(#148));
#79=EDGE_LOOP('',(#149));
#80=EDGE_LOOP('',(#150));
#81=CIRCLE('',#186,32.5);
#82=CIRCLE('',#187,30.5);
#83=CIRCLE('',#189,32.5);
#84=CIRCLE('',#191,25.9);
#85=CIRCLE('',#193,30.5);
#86=CIRCLE('',#195,24.);
#87=CIRCLE('',#197,21.5);
#88=CIRCLE('',#199,21.5);
#89=CIRCLE('',#201,20.);
#90=CIRCLE('',#202,19.);
#91=CIRCLE('',#205,25.9);
#92=CIRCLE('',#207,21.);
#93=CIRCLE('',#209,21.);
#94=CIRCLE('',#211,19.);
#95=VERTEX_POINT('',#273);
#96=VERTEX_POINT('',#275);
#97=VERTEX_POINT('',#278);
#98=VERTEX_POINT('',#281);
#99=VERTEX_POINT('',#284);
#100=VERTEX_POINT('',#287);
#101=VERTEX_POINT('',#290);
#102=VERTEX_POINT('',#293);
#103=VERTEX_POINT('',#296);
#104=VERTEX_POINT('',#298);
#105=VERTEX_POINT('',#302);
#106=VERTEX_POINT('',#305);
#107=VERTEX_POINT('',#308);
#108=VERTEX_POINT('',#311);
#109=EDGE_CURVE('',#95,#95,#81,.T.);
#110=EDGE_CURVE('',#96,#96,#82,.T.);
#111=EDGE_CURVE('',#97,#97,#83,.T.);
#112=EDGE_CURVE('',#98,#98,#84,.T.);
#113=EDGE_CURVE('',#99,#99,#85,.T.);
#114=EDGE_CURVE('',#100,#100,#86,.T.);
#115=EDGE_CURVE('',#101,#101,#87,.T.);
#116=EDGE_CURVE('',#102,#102,#88,.T.);
#117=EDGE_CURVE('',#103,#103,#89,.T.);
#118=EDGE_CURVE('',#104,#104,#90,.T.);
#119=EDGE_CURVE('',#105,#105,#91,.T.);
#120=EDGE_CURVE('',#106,#106,#92,.T.);
#121=EDGE_CURVE('',#107,#107,#93,.T.);
#122=EDGE_CURVE('',#108,#108,#94,.T.);
#123=ORIENTED_EDGE('',*,*,#109,.T.);
#124=ORIENTED_EDGE('',*,*,#110,.T.);
#125=ORIENTED_EDGE('',*,*,#111,.F.);
#126=ORIENTED_EDGE('',*,*,#109,.F.);
#127=ORIENTED_EDGE('',*,*,#110,.F.);
#128=ORIENTED_EDGE('',*,*,#112,.F.);
#129=ORIENTED_EDGE('',*,*,#113,.T.);
#130=ORIENTED_EDGE('',*,*,#111,.T.);
#131=ORIENTED_EDGE('',*,*,#113,.F.);
#132=ORIENTED_EDGE('',*,*,#114,.F.);
#133=ORIENTED_EDGE('',*,*,#115,.T.);
#134=ORIENTED_EDGE('',*,*,#114,.T.);
#135=ORIENTED_EDGE('',*,*,#116,.T.);
#136=ORIENTED_EDGE('',*,*,#115,.F.);
#137=ORIENTED_EDGE('',*,*,#117,.F.);
#138=ORIENTED_EDGE('',*,*,#118,.T.);
#139=ORIENTED_EDGE('',*,*,#116,.F.);
#140=ORIENTED_EDGE('',*,*,#117,.T.);
#141=ORIENTED_EDGE('',*,*,#119,.F.);
#142=ORIENTED_EDGE('',*,*,#112,.T.);
#143=ORIENTED_EDGE('',*,*,#119,.T.);
#144=ORIENTED_EDGE('',*,*,#120,.F.);
#145=ORIENTED_EDGE('',*,*,#121,.F.);
#146=ORIENTED_EDGE('',*,*,#120,.T.);
#147=ORIENTED_EDGE('',*,*,#121,.T.);
#148=ORIENTED_EDGE('',*,*,#122,.F.);
#149=ORIENTED_EDGE('',*,*,#118,.F.);
#150=ORIENTED_EDGE('',*,*,#122,.T.);
#151=CONICAL_SURFACE('',#185,31.5,45.);
#152=CONICAL_SURFACE('',#192,31.5,45.0000000000001);
#153=CONICAL_SURFACE('',#203,20.75,60.0000000000001);
#154=STYLED_ITEM('',(#335),#169);
#155=STYLED_ITEM('',(#335),#170);
#156=STYLED_ITEM('',(#335),#171);
#157=STYLED_ITEM('',(#335),#172);
#158=STYLED_ITEM('',(#335),#173);
#159=STYLED_ITEM('',(#335),#174);
#160=STYLED_ITEM('',(#335),#175);
#161=STYLED_ITEM('',(#335),#176);
#162=STYLED_ITEM('',(#335),#177);
#163=STYLED_ITEM('',(#335),#178);
#164=STYLED_ITEM('',(#335),#179);
#165=STYLED_ITEM('',(#335),#180);
#166=STYLED_ITEM('',(#335),#181);
#167=STYLED_ITEM('',(#335),#182);
#168=STYLED_ITEM('',(#335),#13);
#169=ADVANCED_FACE('',(#39,#25),#151,.T.);
#170=ADVANCED_FACE('',(#40,#26),#20,.T.);
#171=ADVANCED_FACE('',(#41,#27),#15,.T.);
#172=ADVANCED_FACE('',(#42,#28),#152,.T.);
#173=ADVANCED_FACE('',(#43,#29),#16,.T.);
#174=ADVANCED_FACE('',(#44,#30),#14,.F.);
#175=ADVANCED_FACE('',(#45,#31),#21,.T.);
#176=ADVANCED_FACE('',(#46,#32),#17,.T.);
#177=ADVANCED_FACE('',(#47,#33),#153,.T.);
#178=ADVANCED_FACE('',(#48,#34),#22,.F.);
#179=ADVANCED_FACE('',(#49,#35),#18,.T.);
#180=ADVANCED_FACE('',(#50,#36),#23,.T.);
#181=ADVANCED_FACE('',(#51,#37),#19,.T.);
#182=ADVANCED_FACE('',(#52,#38),#24,.F.);
#183=CLOSED_SHELL('',(#169,#170,#171,#172,#173,#174,#175,#176,#177,#178,
#179,#180,#181,#182));
#184=AXIS2_PLACEMENT_3D('placement',#271,#213,#214);
#185=AXIS2_PLACEMENT_3D('',#272,#215,#216);
#186=AXIS2_PLACEMENT_3D('',#274,#217,#218);
#187=AXIS2_PLACEMENT_3D('',#276,#219,#220);
#188=AXIS2_PLACEMENT_3D('',#277,#221,#222);
#189=AXIS2_PLACEMENT_3D('',#279,#223,#224);
#190=AXIS2_PLACEMENT_3D('',#280,#225,#226);
#191=AXIS2_PLACEMENT_3D('',#282,#227,#228);
#192=AXIS2_PLACEMENT_3D('',#283,#229,#230);
#193=AXIS2_PLACEMENT_3D('',#285,#231,#232);
#194=AXIS2_PLACEMENT_3D('',#286,#233,#234);
#195=AXIS2_PLACEMENT_3D('',#288,#235,#236);
#196=AXIS2_PLACEMENT_3D('',#289,#237,#238);
#197=AXIS2_PLACEMENT_3D('',#291,#239,#240);
#198=AXIS2_PLACEMENT_3D('',#292,#241,#242);
#199=AXIS2_PLACEMENT_3D('',#294,#243,#244);
#200=AXIS2_PLACEMENT_3D('',#295,#245,#246);
#201=AXIS2_PLACEMENT_3D('',#297,#247,#248);
#202=AXIS2_PLACEMENT_3D('',#299,#249,#250);
#203=AXIS2_PLACEMENT_3D('',#300,#251,#252);
#204=AXIS2_PLACEMENT_3D('',#301,#253,#254);
#205=AXIS2_PLACEMENT_3D('',#303,#255,#256);
#206=AXIS2_PLACEMENT_3D('',#304,#257,#258);
#207=AXIS2_PLACEMENT_3D('',#306,#259,#260);
#208=AXIS2_PLACEMENT_3D('',#307,#261,#262);
#209=AXIS2_PLACEMENT_3D('',#309,#263,#264);
#210=AXIS2_PLACEMENT_3D('',#310,#265,#266);
#211=AXIS2_PLACEMENT_3D('',#312,#267,#268);
#212=AXIS2_PLACEMENT_3D('',#313,#269,#270);
#213=DIRECTION('axis',(0.,0.,1.));
#214=DIRECTION('refdir',(1.,0.,0.));
#215=DIRECTION('center_axis',(-1.,0.,0.));
#216=DIRECTION('ref_axis',(0.,-1.,0.));
#217=DIRECTION('center_axis',(1.,0.,0.));
#218=DIRECTION('ref_axis',(0.,-1.,0.));
#219=DIRECTION('center_axis',(-1.,0.,0.));
#220=DIRECTION('ref_axis',(0.,-1.,0.));
#221=DIRECTION('center_axis',(1.,0.,0.));
#222=DIRECTION('ref_axis',(0.,1.,0.));
#223=DIRECTION('center_axis',(-1.,0.,0.));
#224=DIRECTION('ref_axis',(0.,-1.,0.));
#225=DIRECTION('center_axis',(1.,0.,0.));
#226=DIRECTION('ref_axis',(0.,0.,-1.));
#227=DIRECTION('center_axis',(1.,0.,0.));
#228=DIRECTION('ref_axis',(0.,0.,-1.));
#229=DIRECTION('center_axis',(1.,0.,0.));
#230=DIRECTION('ref_axis',(0.,-1.,0.));
#231=DIRECTION('center_axis',(1.,0.,0.));
#232=DIRECTION('ref_axis',(0.,-1.,0.));
#233=DIRECTION('center_axis',(-1.,0.,0.));
#234=DIRECTION('ref_axis',(0.,0.,1.));
#235=DIRECTION('center_axis',(-1.,0.,0.));
#236=DIRECTION('ref_axis',(0.,-1.,1.83697019872103E-16));
#237=DIRECTION('center_axis',(1.,0.,0.));
#238=DIRECTION('ref_axis',(0.,0.,-1.));
#239=DIRECTION('center_axis',(1.,0.,0.));
#240=DIRECTION('ref_axis',(0.,-1.,1.83697019872103E-16));
#241=DIRECTION('center_axis',(1.,0.,0.));
#242=DIRECTION('ref_axis',(0.,1.,0.));
#243=DIRECTION('center_axis',(1.,0.,0.));
#244=DIRECTION('ref_axis',(0.,0.,-1.));
#245=DIRECTION('center_axis',(-1.,0.,0.));
#246=DIRECTION('ref_axis',(0.,0.,1.));
#247=DIRECTION('center_axis',(1.,0.,0.));
#248=DIRECTION('ref_axis',(0.,0.,-1.));
#249=DIRECTION('center_axis',(1.,0.,0.));
#250=DIRECTION('ref_axis',(0.,0.,-1.));
#251=DIRECTION('center_axis',(1.,0.,0.));
#252=DIRECTION('ref_axis',(0.,1.,0.));
#253=DIRECTION('center_axis',(1.,0.,0.));
#254=DIRECTION('ref_axis',(0.,1.,0.));
#255=DIRECTION('center_axis',(1.,0.,0.));
#256=DIRECTION('ref_axis',(0.,0.,-1.));
#257=DIRECTION('center_axis',(1.,0.,0.));
#258=DIRECTION('ref_axis',(0.,0.,-1.));
#259=DIRECTION('center_axis',(1.,0.,0.));
#260=DIRECTION('ref_axis',(0.,0.,-1.));
#261=DIRECTION('center_axis',(1.,0.,0.));
#262=DIRECTION('ref_axis',(0.,1.,0.));
#263=DIRECTION('center_axis',(1.,0.,0.));
#264=DIRECTION('ref_axis',(0.,0.,-1.));
#265=DIRECTION('center_axis',(1.,0.,0.));
#266=DIRECTION('ref_axis',(0.,0.,-1.));
#267=DIRECTION('center_axis',(1.,0.,0.));
#268=DIRECTION('ref_axis',(0.,0.,-1.));
#269=DIRECTION('center_axis',(1.,0.,0.));
#270=DIRECTION('ref_axis',(0.,1.,0.));
#271=CARTESIAN_POINT('',(0.,0.,0.));
#272=CARTESIAN_POINT('Origin',(-1.,0.,0.));
#273=CARTESIAN_POINT('',(-2.,32.5,3.9801020972289E-15));
#274=CARTESIAN_POINT('Origin',(-2.,0.,0.));
#275=CARTESIAN_POINT('',(0.,30.5,-3.73517273739943E-15));
#276=CARTESIAN_POINT('Origin',(0.,0.,0.));
#277=CARTESIAN_POINT('Origin',(-6.5,0.,0.));
#278=CARTESIAN_POINT('',(-11.,32.5,-3.9801020972289E-15));
#279=CARTESIAN_POINT('Origin',(-11.,0.,0.));
#280=CARTESIAN_POINT('Origin',(0.,25.9,0.));
#281=CARTESIAN_POINT('',(0.,25.9,0.));
#282=CARTESIAN_POINT('Origin',(0.,0.,0.));
#283=CARTESIAN_POINT('Origin',(-12.,0.,0.));
#284=CARTESIAN_POINT('',(-13.,30.5,3.73517273739943E-15));
#285=CARTESIAN_POINT('Origin',(-13.,0.,0.));
#286=CARTESIAN_POINT('Origin',(-13.,32.5,0.));
#287=CARTESIAN_POINT('',(-13.,24.,-7.34788079488412E-15));
#288=CARTESIAN_POINT('Origin',(-13.,0.,0.));
#289=CARTESIAN_POINT('Origin',(-15.5,0.,0.));
#290=CARTESIAN_POINT('',(-15.5,21.5,-1.3164953090834E-15));
#291=CARTESIAN_POINT('Origin',(-15.5,0.,0.));
#292=CARTESIAN_POINT('Origin',(-19.0669872981078,0.,0.));
#293=CARTESIAN_POINT('',(-25.1339745962156,21.5,0.));
#294=CARTESIAN_POINT('Origin',(-25.1339745962156,0.,0.));
#295=CARTESIAN_POINT('Origin',(-26.,20.,0.));
#296=CARTESIAN_POINT('',(-26.,20.,0.));
#297=CARTESIAN_POINT('Origin',(-26.,0.,0.));
#298=CARTESIAN_POINT('',(-26.,19.,0.));
#299=CARTESIAN_POINT('Origin',(-26.,0.,0.));
#300=CARTESIAN_POINT('Origin',(-25.5669872981078,0.,0.));
#301=CARTESIAN_POINT('Origin',(-1.75,0.,0.));
#302=CARTESIAN_POINT('',(-3.5,25.9,0.));
#303=CARTESIAN_POINT('Origin',(-3.5,0.,0.));
#304=CARTESIAN_POINT('Origin',(-3.5,21.,0.));
#305=CARTESIAN_POINT('',(-3.5,21.,0.));
#306=CARTESIAN_POINT('Origin',(-3.5,0.,0.));
#307=CARTESIAN_POINT('Origin',(-1.75,0.,0.));
#308=CARTESIAN_POINT('',(0.,21.,0.));
#309=CARTESIAN_POINT('Origin',(0.,0.,0.));
#310=CARTESIAN_POINT('Origin',(0.,19.,0.));
#311=CARTESIAN_POINT('',(0.,19.,0.));
#312=CARTESIAN_POINT('Origin',(0.,0.,0.));
#313=CARTESIAN_POINT('Origin',(-13.,0.,0.));
#314=UNCERTAINTY_MEASURE_WITH_UNIT(LENGTH_MEASURE(0.01),#318,
'DISTANCE_ACCURACY_VALUE',
'Maximum model space distance between geometric entities at asserted c
onnectivities');
#315=UNCERTAINTY_MEASURE_WITH_UNIT(LENGTH_MEASURE(1.E-6),#318,
'DISTANCE_ACCURACY_VALUE',
'Maximum model space distance between geometric entities at asserted c
onnectivities');
#316=(
GEOMETRIC_REPRESENTATION_CONTEXT(3)
GLOBAL_UNCERTAINTY_ASSIGNED_CONTEXT((#314))
GLOBAL_UNIT_ASSIGNED_CONTEXT((#318,#321,#319))
REPRESENTATION_CONTEXT('','3D')
);
#317=(
GEOMETRIC_REPRESENTATION_CONTEXT(3)
GLOBAL_UNCERTAINTY_ASSIGNED_CONTEXT((#315))
GLOBAL_UNIT_ASSIGNED_CONTEXT((#318,#321,#319))
REPRESENTATION_CONTEXT('','3D')
);
#318=(
LENGTH_UNIT()
NAMED_UNIT(*)
SI_UNIT(.MILLI.,.METRE.)
);
#319=(
NAMED_UNIT(*)
SI_UNIT($,.STERADIAN.)
SOLID_ANGLE_UNIT()
);
#320=DIMENSIONAL_EXPONENTS(0.,0.,0.,0.,0.,0.,0.);
#321=(
CONVERSION_BASED_UNIT('degree',#323)
NAMED_UNIT(#320)
PLANE_ANGLE_UNIT()
);
#322=(
NAMED_UNIT(*)
PLANE_ANGLE_UNIT()
SI_UNIT($,.RADIAN.)
);
#323=PLANE_ANGLE_MEASURE_WITH_UNIT(PLANE_ANGLE_MEASURE(0.01745329252),#322);
#324=SHAPE_DEFINITION_REPRESENTATION(#325,#326);
#325=PRODUCT_DEFINITION_SHAPE('',$,#328);
#326=SHAPE_REPRESENTATION('',(#184),#316);
#327=DESIGN_CONTEXT('part definition',#332,'design');
#328=PRODUCT_DEFINITION('20103040000','20103040000',#329,#327);
#329=PRODUCT_DEFINITION_FORMATION('',$,#334);
#330=PRODUCT_RELATED_PRODUCT_CATEGORY('20103040000','20103040000',(#334));
#331=APPLICATION_PROTOCOL_DEFINITION('international standard',
'ap203_configuration_controlled_3d_design_of_mechanical_parts_and_asse
mblies_mim_lf',2004,#332);
#332=APPLICATION_CONTEXT(
'Configuration Controlled 3D Design of Mechanical Parts and Assemblies');
#333=MECHANICAL_CONTEXT('part definition',#332,'mechanical');
#334=PRODUCT('20103040000','20103040000',$,(#333));
#335=PRESENTATION_STYLE_ASSIGNMENT((#336));
#336=SURFACE_STYLE_USAGE(.BOTH.,#337);
#337=SURFACE_SIDE_STYLE($,(#338));
#338=SURFACE_STYLE_FILL_AREA(#339);
#339=FILL_AREA_STYLE($,(#340));
#340=FILL_AREA_STYLE_COLOUR($,#341);
#341=COLOUR_RGB('',0.745098039215686,0.737254901960784,0.729411764705882);
ENDSEC;
END-ISO-10303-21;
