ISO-10303-21;
HEADER;
/* Generated by software containing ST-Developer
 * from STEP Tools, Inc. (www.steptools.com) 
 */

FILE_DESCRIPTION(
/* description */ ('Z\X\E1vitov\X\E9 hrdlo ZH pro zav\X\E1lcov\X\E1n\X\ED'),

/* implementation_level */ '2;1');

FILE_NAME(
/* name */ 
'C:\\Vault_Workspace\\DATA\\Katalog Bupospol\\2 Potrubn\X\ED d\X\EDly\\
2.0 \X2\0160\X0\rouben\X\ED\\20104\\20104\\20104080000.stp',
/* time_stamp */ '2016-01-11T08:14:06+01:00',
/* author */ ('Struska'),
/* organization */ ('Bupospol'),
/* preprocessor_version */ 'ST-DEVELOPER v15.6',
/* originating_system */ 'Autodesk Inventor 2015',
/* authorisation */ '');

FILE_SCHEMA (('CONFIG_CONTROL_DESIGN'));
ENDSEC;

DATA;
#10=MECHANICAL_DESIGN_GEOMETRIC_PRESENTATION_REPRESENTATION('',(#331,#329,
#328,#330,#316,#317,#315,#320,#318,#319,#314,#332,#333,#334,#335,#336,#337,
#338,#339,#340,#341,#342,#343,#344,#324,#322,#326,#325,#327,#323,#321),
#653);
#11=SHAPE_REPRESENTATION_RELATIONSHIP('SRR','None',#662,#12);
#12=ADVANCED_BREP_SHAPE_REPRESENTATION($,(#13),#652);
#13=MANIFOLD_SOLID_BREP('T\X2\011B\X0\leso1',#375);
#14=PLANE('',#389);
#15=PLANE('',#396);
#16=PLANE('',#400);
#17=PLANE('',#404);
#18=PLANE('',#409);
#19=PLANE('',#414);
#20=PLANE('',#422);
#21=PLANE('',#428);
#22=PLANE('',#432);
#23=CONICAL_SURFACE('',#382,49.7,80.0000000000001);
#24=CONICAL_SURFACE('',#416,53.95,45.);
#25=CONICAL_SURFACE('',#420,53.95,45.);
#26=CONICAL_SURFACE('',#424,48.45,14.7083038996827);
#27=CYLINDRICAL_SURFACE('',#380,46.5);
#28=CYLINDRICAL_SURFACE('',#387,43.25);
#29=CYLINDRICAL_SURFACE('',#394,43.25);
#30=CYLINDRICAL_SURFACE('',#411,42.65);
#31=CYLINDRICAL_SURFACE('',#418,55.);
#32=CYLINDRICAL_SURFACE('',#426,47.4);
#33=CYLINDRICAL_SURFACE('',#430,42.5);
#34=CYLINDRICAL_SURFACE('',#434,40.5);
#35=CYLINDRICAL_SURFACE('',#435,42.65);
#36=CYLINDRICAL_SURFACE('',#436,42.65);
#37=FACE_BOUND('',#98,.T.);
#38=FACE_BOUND('',#100,.T.);
#39=FACE_BOUND('',#102,.T.);
#40=FACE_BOUND('',#104,.T.);
#41=FACE_BOUND('',#106,.T.);
#42=FACE_BOUND('',#108,.T.);
#43=FACE_BOUND('',#110,.T.);
#44=FACE_BOUND('',#112,.T.);
#45=FACE_BOUND('',#114,.T.);
#46=FACE_BOUND('',#116,.T.);
#47=FACE_BOUND('',#118,.T.);
#48=FACE_BOUND('',#120,.T.);
#49=FACE_BOUND('',#122,.T.);
#50=FACE_BOUND('',#124,.T.);
#51=FACE_BOUND('',#126,.T.);
#52=FACE_BOUND('',#128,.T.);
#53=FACE_BOUND('',#130,.T.);
#54=FACE_BOUND('',#132,.T.);
#55=FACE_BOUND('',#134,.T.);
#56=FACE_BOUND('',#136,.T.);
#57=FACE_BOUND('',#138,.T.);
#58=FACE_BOUND('',#140,.T.);
#59=FACE_BOUND('',#142,.T.);
#60=FACE_BOUND('',#144,.T.);
#61=FACE_BOUND('',#146,.T.);
#62=FACE_BOUND('',#148,.T.);
#63=FACE_BOUND('',#150,.T.);
#64=FACE_BOUND('',#152,.T.);
#65=FACE_BOUND('',#154,.T.);
#66=FACE_BOUND('',#156,.T.);
#67=FACE_OUTER_BOUND('',#97,.T.);
#68=FACE_OUTER_BOUND('',#99,.T.);
#69=FACE_OUTER_BOUND('',#101,.T.);
#70=FACE_OUTER_BOUND('',#103,.T.);
#71=FACE_OUTER_BOUND('',#105,.T.);
#72=FACE_OUTER_BOUND('',#107,.T.);
#73=FACE_OUTER_BOUND('',#109,.T.);
#74=FACE_OUTER_BOUND('',#111,.T.);
#75=FACE_OUTER_BOUND('',#113,.T.);
#76=FACE_OUTER_BOUND('',#115,.T.);
#77=FACE_OUTER_BOUND('',#117,.T.);
#78=FACE_OUTER_BOUND('',#119,.T.);
#79=FACE_OUTER_BOUND('',#121,.T.);
#80=FACE_OUTER_BOUND('',#123,.T.);
#81=FACE_OUTER_BOUND('',#125,.T.);
#82=FACE_OUTER_BOUND('',#127,.T.);
#83=FACE_OUTER_BOUND('',#129,.T.);
#84=FACE_OUTER_BOUND('',#131,.T.);
#85=FACE_OUTER_BOUND('',#133,.T.);
#86=FACE_OUTER_BOUND('',#135,.T.);
#87=FACE_OUTER_BOUND('',#137,.T.);
#88=FACE_OUTER_BOUND('',#139,.T.);
#89=FACE_OUTER_BOUND('',#141,.T.);
#90=FACE_OUTER_BOUND('',#143,.T.);
#91=FACE_OUTER_BOUND('',#145,.T.);
#92=FACE_OUTER_BOUND('',#147,.T.);
#93=FACE_OUTER_BOUND('',#149,.T.);
#94=FACE_OUTER_BOUND('',#151,.T.);
#95=FACE_OUTER_BOUND('',#153,.T.);
#96=FACE_OUTER_BOUND('',#155,.T.);
#97=EDGE_LOOP('',(#247));
#98=EDGE_LOOP('',(#248));
#99=EDGE_LOOP('',(#249));
#100=EDGE_LOOP('',(#250));
#101=EDGE_LOOP('',(#251));
#102=EDGE_LOOP('',(#252));
#103=EDGE_LOOP('',(#253));
#104=EDGE_LOOP('',(#254));
#105=EDGE_LOOP('',(#255));
#106=EDGE_LOOP('',(#256));
#107=EDGE_LOOP('',(#257));
#108=EDGE_LOOP('',(#258));
#109=EDGE_LOOP('',(#259));
#110=EDGE_LOOP('',(#260));
#111=EDGE_LOOP('',(#261));
#112=EDGE_LOOP('',(#262));
#113=EDGE_LOOP('',(#263));
#114=EDGE_LOOP('',(#264));
#115=EDGE_LOOP('',(#265));
#116=EDGE_LOOP('',(#266));
#117=EDGE_LOOP('',(#267));
#118=EDGE_LOOP('',(#268));
#119=EDGE_LOOP('',(#269));
#120=EDGE_LOOP('',(#270));
#121=EDGE_LOOP('',(#271));
#122=EDGE_LOOP('',(#272));
#123=EDGE_LOOP('',(#273));
#124=EDGE_LOOP('',(#274));
#125=EDGE_LOOP('',(#275));
#126=EDGE_LOOP('',(#276));
#127=EDGE_LOOP('',(#277));
#128=EDGE_LOOP('',(#278));
#129=EDGE_LOOP('',(#279));
#130=EDGE_LOOP('',(#280));
#131=EDGE_LOOP('',(#281));
#132=EDGE_LOOP('',(#282));
#133=EDGE_LOOP('',(#283));
#134=EDGE_LOOP('',(#284));
#135=EDGE_LOOP('',(#285));
#136=EDGE_LOOP('',(#286));
#137=EDGE_LOOP('',(#287));
#138=EDGE_LOOP('',(#288));
#139=EDGE_LOOP('',(#289));
#140=EDGE_LOOP('',(#290));
#141=EDGE_LOOP('',(#291));
#142=EDGE_LOOP('',(#292));
#143=EDGE_LOOP('',(#293));
#144=EDGE_LOOP('',(#294));
#145=EDGE_LOOP('',(#295));
#146=EDGE_LOOP('',(#296));
#147=EDGE_LOOP('',(#297));
#148=EDGE_LOOP('',(#298));
#149=EDGE_LOOP('',(#299));
#150=EDGE_LOOP('',(#300));
#151=EDGE_LOOP('',(#301));
#152=EDGE_LOOP('',(#302));
#153=EDGE_LOOP('',(#303));
#154=EDGE_LOOP('',(#304));
#155=EDGE_LOOP('',(#305));
#156=EDGE_LOOP('',(#306));
#157=CIRCLE('',#378,46.5);
#158=CIRCLE('',#379,49.8054072893323);
#159=CIRCLE('',#381,46.5);
#160=CIRCLE('',#383,52.9);
#161=CIRCLE('',#385,43.25);
#162=CIRCLE('',#386,43.05);
#163=CIRCLE('',#388,43.25);
#164=CIRCLE('',#390,42.65);
#165=CIRCLE('',#392,43.25);
#166=CIRCLE('',#393,43.05);
#167=CIRCLE('',#395,43.25);
#168=CIRCLE('',#397,42.65);
#169=CIRCLE('',#399,43.05);
#170=CIRCLE('',#401,42.65);
#171=CIRCLE('',#403,43.05);
#172=CIRCLE('',#405,42.65);
#173=CIRCLE('',#407,42.45);
#174=CIRCLE('',#408,42.65);
#175=CIRCLE('',#410,40.5);
#176=CIRCLE('',#413,44.9);
#177=CIRCLE('',#415,42.65);
#178=CIRCLE('',#417,55.);
#179=CIRCLE('',#419,55.);
#180=CIRCLE('',#421,52.9);
#181=CIRCLE('',#423,49.5);
#182=CIRCLE('',#425,47.4);
#183=CIRCLE('',#427,47.4);
#184=CIRCLE('',#429,42.5);
#185=CIRCLE('',#431,42.5);
#186=CIRCLE('',#433,40.5);
#187=VERTEX_POINT('',#561);
#188=VERTEX_POINT('',#563);
#189=VERTEX_POINT('',#566);
#190=VERTEX_POINT('',#569);
#191=VERTEX_POINT('',#572);
#192=VERTEX_POINT('',#574);
#193=VERTEX_POINT('',#577);
#194=VERTEX_POINT('',#580);
#195=VERTEX_POINT('',#583);
#196=VERTEX_POINT('',#585);
#197=VERTEX_POINT('',#588);
#198=VERTEX_POINT('',#591);
#199=VERTEX_POINT('',#594);
#200=VERTEX_POINT('',#597);
#201=VERTEX_POINT('',#600);
#202=VERTEX_POINT('',#603);
#203=VERTEX_POINT('',#606);
#204=VERTEX_POINT('',#608);
#205=VERTEX_POINT('',#611);
#206=VERTEX_POINT('',#615);
#207=VERTEX_POINT('',#618);
#208=VERTEX_POINT('',#621);
#209=VERTEX_POINT('',#624);
#210=VERTEX_POINT('',#627);
#211=VERTEX_POINT('',#630);
#212=VERTEX_POINT('',#633);
#213=VERTEX_POINT('',#636);
#214=VERTEX_POINT('',#639);
#215=VERTEX_POINT('',#642);
#216=VERTEX_POINT('',#645);
#217=EDGE_CURVE('',#187,#187,#157,.T.);
#218=EDGE_CURVE('',#188,#188,#158,.T.);
#219=EDGE_CURVE('',#189,#189,#159,.T.);
#220=EDGE_CURVE('',#190,#190,#160,.T.);
#221=EDGE_CURVE('',#191,#191,#161,.T.);
#222=EDGE_CURVE('',#192,#192,#162,.T.);
#223=EDGE_CURVE('',#193,#193,#163,.T.);
#224=EDGE_CURVE('',#194,#194,#164,.T.);
#225=EDGE_CURVE('',#195,#195,#165,.T.);
#226=EDGE_CURVE('',#196,#196,#166,.T.);
#227=EDGE_CURVE('',#197,#197,#167,.T.);
#228=EDGE_CURVE('',#198,#198,#168,.T.);
#229=EDGE_CURVE('',#199,#199,#169,.T.);
#230=EDGE_CURVE('',#200,#200,#170,.T.);
#231=EDGE_CURVE('',#201,#201,#171,.T.);
#232=EDGE_CURVE('',#202,#202,#172,.T.);
#233=EDGE_CURVE('',#203,#203,#173,.T.);
#234=EDGE_CURVE('',#204,#204,#174,.T.);
#235=EDGE_CURVE('',#205,#205,#175,.T.);
#236=EDGE_CURVE('',#206,#206,#176,.T.);
#237=EDGE_CURVE('',#207,#207,#177,.T.);
#238=EDGE_CURVE('',#208,#208,#178,.T.);
#239=EDGE_CURVE('',#209,#209,#179,.T.);
#240=EDGE_CURVE('',#210,#210,#180,.T.);
#241=EDGE_CURVE('',#211,#211,#181,.T.);
#242=EDGE_CURVE('',#212,#212,#182,.T.);
#243=EDGE_CURVE('',#213,#213,#183,.T.);
#244=EDGE_CURVE('',#214,#214,#184,.T.);
#245=EDGE_CURVE('',#215,#215,#185,.T.);
#246=EDGE_CURVE('',#216,#216,#186,.T.);
#247=ORIENTED_EDGE('',*,*,#217,.T.);
#248=ORIENTED_EDGE('',*,*,#218,.T.);
#249=ORIENTED_EDGE('',*,*,#219,.F.);
#250=ORIENTED_EDGE('',*,*,#217,.F.);
#251=ORIENTED_EDGE('',*,*,#220,.F.);
#252=ORIENTED_EDGE('',*,*,#218,.F.);
#253=ORIENTED_EDGE('',*,*,#221,.T.);
#254=ORIENTED_EDGE('',*,*,#222,.T.);
#255=ORIENTED_EDGE('',*,*,#223,.F.);
#256=ORIENTED_EDGE('',*,*,#221,.F.);
#257=ORIENTED_EDGE('',*,*,#222,.F.);
#258=ORIENTED_EDGE('',*,*,#224,.F.);
#259=ORIENTED_EDGE('',*,*,#225,.T.);
#260=ORIENTED_EDGE('',*,*,#226,.T.);
#261=ORIENTED_EDGE('',*,*,#227,.F.);
#262=ORIENTED_EDGE('',*,*,#225,.F.);
#263=ORIENTED_EDGE('',*,*,#226,.F.);
#264=ORIENTED_EDGE('',*,*,#228,.F.);
#265=ORIENTED_EDGE('',*,*,#229,.T.);
#266=ORIENTED_EDGE('',*,*,#223,.T.);
#267=ORIENTED_EDGE('',*,*,#229,.F.);
#268=ORIENTED_EDGE('',*,*,#230,.T.);
#269=ORIENTED_EDGE('',*,*,#231,.T.);
#270=ORIENTED_EDGE('',*,*,#227,.T.);
#271=ORIENTED_EDGE('',*,*,#231,.F.);
#272=ORIENTED_EDGE('',*,*,#232,.T.);
#273=ORIENTED_EDGE('',*,*,#233,.T.);
#274=ORIENTED_EDGE('',*,*,#234,.T.);
#275=ORIENTED_EDGE('',*,*,#233,.F.);
#276=ORIENTED_EDGE('',*,*,#235,.T.);
#277=ORIENTED_EDGE('',*,*,#232,.F.);
#278=ORIENTED_EDGE('',*,*,#234,.F.);
#279=ORIENTED_EDGE('',*,*,#236,.T.);
#280=ORIENTED_EDGE('',*,*,#219,.T.);
#281=ORIENTED_EDGE('',*,*,#236,.F.);
#282=ORIENTED_EDGE('',*,*,#237,.T.);
#283=ORIENTED_EDGE('',*,*,#220,.T.);
#284=ORIENTED_EDGE('',*,*,#238,.F.);
#285=ORIENTED_EDGE('',*,*,#238,.T.);
#286=ORIENTED_EDGE('',*,*,#239,.F.);
#287=ORIENTED_EDGE('',*,*,#239,.T.);
#288=ORIENTED_EDGE('',*,*,#240,.F.);
#289=ORIENTED_EDGE('',*,*,#240,.T.);
#290=ORIENTED_EDGE('',*,*,#241,.F.);
#291=ORIENTED_EDGE('',*,*,#241,.T.);
#292=ORIENTED_EDGE('',*,*,#242,.F.);
#293=ORIENTED_EDGE('',*,*,#242,.T.);
#294=ORIENTED_EDGE('',*,*,#243,.F.);
#295=ORIENTED_EDGE('',*,*,#243,.T.);
#296=ORIENTED_EDGE('',*,*,#244,.F.);
#297=ORIENTED_EDGE('',*,*,#244,.T.);
#298=ORIENTED_EDGE('',*,*,#245,.F.);
#299=ORIENTED_EDGE('',*,*,#245,.T.);
#300=ORIENTED_EDGE('',*,*,#246,.F.);
#301=ORIENTED_EDGE('',*,*,#246,.T.);
#302=ORIENTED_EDGE('',*,*,#235,.F.);
#303=ORIENTED_EDGE('',*,*,#228,.T.);
#304=ORIENTED_EDGE('',*,*,#230,.F.);
#305=ORIENTED_EDGE('',*,*,#224,.T.);
#306=ORIENTED_EDGE('',*,*,#237,.F.);
#307=TOROIDAL_SURFACE('',#377,50.5,4.);
#308=TOROIDAL_SURFACE('',#384,43.05,0.2);
#309=TOROIDAL_SURFACE('',#391,43.05,0.2);
#310=TOROIDAL_SURFACE('',#398,43.05,0.2);
#311=TOROIDAL_SURFACE('',#402,43.05,0.2);
#312=TOROIDAL_SURFACE('',#406,42.45,0.2);
#313=TOROIDAL_SURFACE('',#412,44.9,1.6);
#314=STYLED_ITEM('',(#671),#345);
#315=STYLED_ITEM('',(#671),#346);
#316=STYLED_ITEM('',(#671),#347);
#317=STYLED_ITEM('',(#671),#348);
#318=STYLED_ITEM('',(#671),#349);
#319=STYLED_ITEM('',(#671),#350);
#320=STYLED_ITEM('',(#671),#351);
#321=STYLED_ITEM('',(#671),#352);
#322=STYLED_ITEM('',(#671),#353);
#323=STYLED_ITEM('',(#671),#354);
#324=STYLED_ITEM('',(#671),#355);
#325=STYLED_ITEM('',(#671),#356);
#326=STYLED_ITEM('',(#671),#357);
#327=STYLED_ITEM('',(#671),#358);
#328=STYLED_ITEM('',(#671),#359);
#329=STYLED_ITEM('',(#671),#360);
#330=STYLED_ITEM('',(#671),#361);
#331=STYLED_ITEM('',(#671),#362);
#332=STYLED_ITEM('',(#671),#363);
#333=STYLED_ITEM('',(#671),#364);
#334=STYLED_ITEM('',(#671),#365);
#335=STYLED_ITEM('',(#671),#366);
#336=STYLED_ITEM('',(#671),#367);
#337=STYLED_ITEM('',(#671),#368);
#338=STYLED_ITEM('',(#671),#369);
#339=STYLED_ITEM('',(#671),#370);
#340=STYLED_ITEM('',(#671),#371);
#341=STYLED_ITEM('',(#671),#372);
#342=STYLED_ITEM('',(#671),#373);
#343=STYLED_ITEM('',(#671),#374);
#344=STYLED_ITEM('',(#671),#13);
#345=ADVANCED_FACE('',(#67,#37),#307,.F.);
#346=ADVANCED_FACE('',(#68,#38),#27,.T.);
#347=ADVANCED_FACE('',(#69,#39),#23,.T.);
#348=ADVANCED_FACE('',(#70,#40),#308,.F.);
#349=ADVANCED_FACE('',(#71,#41),#28,.F.);
#350=ADVANCED_FACE('',(#72,#42),#14,.T.);
#351=ADVANCED_FACE('',(#73,#43),#309,.F.);
#352=ADVANCED_FACE('',(#74,#44),#29,.F.);
#353=ADVANCED_FACE('',(#75,#45),#15,.T.);
#354=ADVANCED_FACE('',(#76,#46),#310,.F.);
#355=ADVANCED_FACE('',(#77,#47),#16,.T.);
#356=ADVANCED_FACE('',(#78,#48),#311,.F.);
#357=ADVANCED_FACE('',(#79,#49),#17,.T.);
#358=ADVANCED_FACE('',(#80,#50),#312,.F.);
#359=ADVANCED_FACE('',(#81,#51),#18,.T.);
#360=ADVANCED_FACE('',(#82,#52),#30,.F.);
#361=ADVANCED_FACE('',(#83,#53),#313,.T.);
#362=ADVANCED_FACE('',(#84,#54),#19,.T.);
#363=ADVANCED_FACE('',(#85,#55),#24,.T.);
#364=ADVANCED_FACE('',(#86,#56),#31,.T.);
#365=ADVANCED_FACE('',(#87,#57),#25,.T.);
#366=ADVANCED_FACE('',(#88,#58),#20,.T.);
#367=ADVANCED_FACE('',(#89,#59),#26,.F.);
#368=ADVANCED_FACE('',(#90,#60),#32,.F.);
#369=ADVANCED_FACE('',(#91,#61),#21,.T.);
#370=ADVANCED_FACE('',(#92,#62),#33,.T.);
#371=ADVANCED_FACE('',(#93,#63),#22,.T.);
#372=ADVANCED_FACE('',(#94,#64),#34,.F.);
#373=ADVANCED_FACE('',(#95,#65),#35,.F.);
#374=ADVANCED_FACE('',(#96,#66),#36,.F.);
#375=CLOSED_SHELL('',(#345,#346,#347,#348,#349,#350,#351,#352,#353,#354,
#355,#356,#357,#358,#359,#360,#361,#362,#363,#364,#365,#366,#367,#368,#369,
#370,#371,#372,#373,#374));
#376=AXIS2_PLACEMENT_3D('placement',#559,#437,#438);
#377=AXIS2_PLACEMENT_3D('',#560,#439,#440);
#378=AXIS2_PLACEMENT_3D('',#562,#441,#442);
#379=AXIS2_PLACEMENT_3D('',#564,#443,#444);
#380=AXIS2_PLACEMENT_3D('',#565,#445,#446);
#381=AXIS2_PLACEMENT_3D('',#567,#447,#448);
#382=AXIS2_PLACEMENT_3D('',#568,#449,#450);
#383=AXIS2_PLACEMENT_3D('',#570,#451,#452);
#384=AXIS2_PLACEMENT_3D('',#571,#453,#454);
#385=AXIS2_PLACEMENT_3D('',#573,#455,#456);
#386=AXIS2_PLACEMENT_3D('',#575,#457,#458);
#387=AXIS2_PLACEMENT_3D('',#576,#459,#460);
#388=AXIS2_PLACEMENT_3D('',#578,#461,#462);
#389=AXIS2_PLACEMENT_3D('',#579,#463,#464);
#390=AXIS2_PLACEMENT_3D('',#581,#465,#466);
#391=AXIS2_PLACEMENT_3D('',#582,#467,#468);
#392=AXIS2_PLACEMENT_3D('',#584,#469,#470);
#393=AXIS2_PLACEMENT_3D('',#586,#471,#472);
#394=AXIS2_PLACEMENT_3D('',#587,#473,#474);
#395=AXIS2_PLACEMENT_3D('',#589,#475,#476);
#396=AXIS2_PLACEMENT_3D('',#590,#477,#478);
#397=AXIS2_PLACEMENT_3D('',#592,#479,#480);
#398=AXIS2_PLACEMENT_3D('',#593,#481,#482);
#399=AXIS2_PLACEMENT_3D('',#595,#483,#484);
#400=AXIS2_PLACEMENT_3D('',#596,#485,#486);
#401=AXIS2_PLACEMENT_3D('',#598,#487,#488);
#402=AXIS2_PLACEMENT_3D('',#599,#489,#490);
#403=AXIS2_PLACEMENT_3D('',#601,#491,#492);
#404=AXIS2_PLACEMENT_3D('',#602,#493,#494);
#405=AXIS2_PLACEMENT_3D('',#604,#495,#496);
#406=AXIS2_PLACEMENT_3D('',#605,#497,#498);
#407=AXIS2_PLACEMENT_3D('',#607,#499,#500);
#408=AXIS2_PLACEMENT_3D('',#609,#501,#502);
#409=AXIS2_PLACEMENT_3D('',#610,#503,#504);
#410=AXIS2_PLACEMENT_3D('',#612,#505,#506);
#411=AXIS2_PLACEMENT_3D('',#613,#507,#508);
#412=AXIS2_PLACEMENT_3D('',#614,#509,#510);
#413=AXIS2_PLACEMENT_3D('',#616,#511,#512);
#414=AXIS2_PLACEMENT_3D('',#617,#513,#514);
#415=AXIS2_PLACEMENT_3D('',#619,#515,#516);
#416=AXIS2_PLACEMENT_3D('',#620,#517,#518);
#417=AXIS2_PLACEMENT_3D('',#622,#519,#520);
#418=AXIS2_PLACEMENT_3D('',#623,#521,#522);
#419=AXIS2_PLACEMENT_3D('',#625,#523,#524);
#420=AXIS2_PLACEMENT_3D('',#626,#525,#526);
#421=AXIS2_PLACEMENT_3D('',#628,#527,#528);
#422=AXIS2_PLACEMENT_3D('',#629,#529,#530);
#423=AXIS2_PLACEMENT_3D('',#631,#531,#532);
#424=AXIS2_PLACEMENT_3D('',#632,#533,#534);
#425=AXIS2_PLACEMENT_3D('',#634,#535,#536);
#426=AXIS2_PLACEMENT_3D('',#635,#537,#538);
#427=AXIS2_PLACEMENT_3D('',#637,#539,#540);
#428=AXIS2_PLACEMENT_3D('',#638,#541,#542);
#429=AXIS2_PLACEMENT_3D('',#640,#543,#544);
#430=AXIS2_PLACEMENT_3D('',#641,#545,#546);
#431=AXIS2_PLACEMENT_3D('',#643,#547,#548);
#432=AXIS2_PLACEMENT_3D('',#644,#549,#550);
#433=AXIS2_PLACEMENT_3D('',#646,#551,#552);
#434=AXIS2_PLACEMENT_3D('',#647,#553,#554);
#435=AXIS2_PLACEMENT_3D('',#648,#555,#556);
#436=AXIS2_PLACEMENT_3D('',#649,#557,#558);
#437=DIRECTION('axis',(0.,0.,1.));
#438=DIRECTION('refdir',(1.,0.,0.));
#439=DIRECTION('center_axis',(1.,0.,0.));
#440=DIRECTION('ref_axis',(0.,0.,-1.));
#441=DIRECTION('center_axis',(1.,0.,0.));
#442=DIRECTION('ref_axis',(0.,-1.,1.83690953073357E-16));
#443=DIRECTION('center_axis',(-1.,0.,0.));
#444=DIRECTION('ref_axis',(0.,-1.,3.06151588455594E-17));
#445=DIRECTION('center_axis',(1.,0.,0.));
#446=DIRECTION('ref_axis',(0.,1.,0.));
#447=DIRECTION('center_axis',(-1.,0.,0.));
#448=DIRECTION('ref_axis',(0.,-1.,1.83690953073357E-16));
#449=DIRECTION('center_axis',(1.,0.,0.));
#450=DIRECTION('ref_axis',(0.,1.,0.));
#451=DIRECTION('center_axis',(1.,0.,0.));
#452=DIRECTION('ref_axis',(0.,0.,-1.));
#453=DIRECTION('center_axis',(1.,0.,0.));
#454=DIRECTION('ref_axis',(0.,0.,-1.));
#455=DIRECTION('center_axis',(1.,0.,0.));
#456=DIRECTION('ref_axis',(0.,-1.,1.83690953073357E-16));
#457=DIRECTION('center_axis',(-1.,0.,0.));
#458=DIRECTION('ref_axis',(0.,-1.,1.83690953073357E-16));
#459=DIRECTION('center_axis',(1.,0.,0.));
#460=DIRECTION('ref_axis',(0.,1.,0.));
#461=DIRECTION('center_axis',(-1.,0.,0.));
#462=DIRECTION('ref_axis',(0.,-1.,1.83690953073357E-16));
#463=DIRECTION('center_axis',(1.,0.,0.));
#464=DIRECTION('ref_axis',(0.,0.,-1.));
#465=DIRECTION('center_axis',(1.,0.,0.));
#466=DIRECTION('ref_axis',(0.,0.,-1.));
#467=DIRECTION('center_axis',(1.,0.,0.));
#468=DIRECTION('ref_axis',(0.,0.,-1.));
#469=DIRECTION('center_axis',(1.,0.,0.));
#470=DIRECTION('ref_axis',(0.,-1.,1.83690953073357E-16));
#471=DIRECTION('center_axis',(-1.,0.,0.));
#472=DIRECTION('ref_axis',(0.,-1.,1.83690953073357E-16));
#473=DIRECTION('center_axis',(1.,0.,0.));
#474=DIRECTION('ref_axis',(0.,1.,0.));
#475=DIRECTION('center_axis',(-1.,0.,0.));
#476=DIRECTION('ref_axis',(0.,-1.,1.83690953073357E-16));
#477=DIRECTION('center_axis',(1.,0.,0.));
#478=DIRECTION('ref_axis',(0.,0.,-1.));
#479=DIRECTION('center_axis',(1.,0.,0.));
#480=DIRECTION('ref_axis',(0.,0.,-1.));
#481=DIRECTION('center_axis',(1.,0.,0.));
#482=DIRECTION('ref_axis',(0.,0.,-1.));
#483=DIRECTION('center_axis',(1.,0.,0.));
#484=DIRECTION('ref_axis',(0.,-1.,1.83690953073357E-16));
#485=DIRECTION('center_axis',(-1.,0.,0.));
#486=DIRECTION('ref_axis',(0.,0.,1.));
#487=DIRECTION('center_axis',(1.,0.,0.));
#488=DIRECTION('ref_axis',(0.,0.,-1.));
#489=DIRECTION('center_axis',(1.,0.,0.));
#490=DIRECTION('ref_axis',(0.,0.,-1.));
#491=DIRECTION('center_axis',(1.,0.,0.));
#492=DIRECTION('ref_axis',(0.,-1.,1.83690953073357E-16));
#493=DIRECTION('center_axis',(-1.,0.,0.));
#494=DIRECTION('ref_axis',(0.,0.,1.));
#495=DIRECTION('center_axis',(1.,0.,0.));
#496=DIRECTION('ref_axis',(0.,0.,-1.));
#497=DIRECTION('center_axis',(1.,0.,0.));
#498=DIRECTION('ref_axis',(0.,0.,-1.));
#499=DIRECTION('center_axis',(1.,0.,0.));
#500=DIRECTION('ref_axis',(0.,-1.,1.83690953073357E-16));
#501=DIRECTION('center_axis',(-1.,0.,0.));
#502=DIRECTION('ref_axis',(0.,-1.,1.83690953073357E-16));
#503=DIRECTION('center_axis',(-1.,0.,0.));
#504=DIRECTION('ref_axis',(0.,0.,1.));
#505=DIRECTION('center_axis',(1.,0.,0.));
#506=DIRECTION('ref_axis',(0.,0.,-1.));
#507=DIRECTION('center_axis',(1.,0.,0.));
#508=DIRECTION('ref_axis',(0.,1.,0.));
#509=DIRECTION('center_axis',(1.,0.,0.));
#510=DIRECTION('ref_axis',(0.,0.,-1.));
#511=DIRECTION('center_axis',(1.,0.,0.));
#512=DIRECTION('ref_axis',(0.,-1.,1.83690953073357E-16));
#513=DIRECTION('center_axis',(-1.,0.,0.));
#514=DIRECTION('ref_axis',(0.,0.,1.));
#515=DIRECTION('center_axis',(1.,0.,0.));
#516=DIRECTION('ref_axis',(0.,0.,-1.));
#517=DIRECTION('center_axis',(1.,0.,0.));
#518=DIRECTION('ref_axis',(0.,1.,0.));
#519=DIRECTION('center_axis',(1.,0.,0.));
#520=DIRECTION('ref_axis',(0.,0.,-1.));
#521=DIRECTION('center_axis',(1.,0.,0.));
#522=DIRECTION('ref_axis',(0.,1.,0.));
#523=DIRECTION('center_axis',(1.,0.,0.));
#524=DIRECTION('ref_axis',(0.,0.,-1.));
#525=DIRECTION('center_axis',(-1.,0.,0.));
#526=DIRECTION('ref_axis',(0.,1.,0.));
#527=DIRECTION('center_axis',(1.,0.,0.));
#528=DIRECTION('ref_axis',(0.,0.,-1.));
#529=DIRECTION('center_axis',(1.,0.,0.));
#530=DIRECTION('ref_axis',(0.,0.,-1.));
#531=DIRECTION('center_axis',(1.,0.,0.));
#532=DIRECTION('ref_axis',(0.,0.,-1.));
#533=DIRECTION('center_axis',(1.,0.,0.));
#534=DIRECTION('ref_axis',(0.,1.,0.));
#535=DIRECTION('center_axis',(1.,0.,0.));
#536=DIRECTION('ref_axis',(0.,0.,-1.));
#537=DIRECTION('center_axis',(1.,0.,0.));
#538=DIRECTION('ref_axis',(0.,1.,0.));
#539=DIRECTION('center_axis',(1.,0.,0.));
#540=DIRECTION('ref_axis',(0.,0.,-1.));
#541=DIRECTION('center_axis',(1.,0.,0.));
#542=DIRECTION('ref_axis',(0.,0.,-1.));
#543=DIRECTION('center_axis',(1.,0.,0.));
#544=DIRECTION('ref_axis',(0.,0.,-1.));
#545=DIRECTION('center_axis',(1.,0.,0.));
#546=DIRECTION('ref_axis',(0.,1.,0.));
#547=DIRECTION('center_axis',(1.,0.,0.));
#548=DIRECTION('ref_axis',(0.,0.,-1.));
#549=DIRECTION('center_axis',(1.,0.,0.));
#550=DIRECTION('ref_axis',(0.,0.,-1.));
#551=DIRECTION('center_axis',(1.,0.,0.));
#552=DIRECTION('ref_axis',(0.,0.,-1.));
#553=DIRECTION('center_axis',(1.,0.,0.));
#554=DIRECTION('ref_axis',(0.,1.,0.));
#555=DIRECTION('center_axis',(1.,0.,0.));
#556=DIRECTION('ref_axis',(0.,1.,0.));
#557=DIRECTION('center_axis',(1.,0.,0.));
#558=DIRECTION('ref_axis',(0.,1.,0.));
#559=CARTESIAN_POINT('',(0.,0.,0.));
#560=CARTESIAN_POINT('Origin',(-24.4848912012433,0.,0.));
#561=CARTESIAN_POINT('',(-24.4848912012433,46.5,-2.84720977263703E-15));
#562=CARTESIAN_POINT('Origin',(-24.4848912012433,0.,0.));
#563=CARTESIAN_POINT('',(-20.5456601891945,49.8054072893323,-1.52480045553069E-14));
#564=CARTESIAN_POINT('Origin',(-20.5456601891945,0.,-7.62400227765346E-15));
#565=CARTESIAN_POINT('Origin',(-33.0642463382671,0.,0.));
#566=CARTESIAN_POINT('',(-43.4,46.5,-1.42360488631851E-14));
#567=CARTESIAN_POINT('Origin',(-43.4,0.,0.));
#568=CARTESIAN_POINT('Origin',(-20.5642463382671,0.,0.));
#569=CARTESIAN_POINT('',(-20.,52.9,0.));
#570=CARTESIAN_POINT('Origin',(-20.,0.,0.));
#571=CARTESIAN_POINT('Origin',(-38.8,0.,0.));
#572=CARTESIAN_POINT('',(-38.8,43.25,-2.64821124014089E-15));
#573=CARTESIAN_POINT('Origin',(-38.8,0.,0.));
#574=CARTESIAN_POINT('',(-39.,43.05,-1.31798258830133E-14));
#575=CARTESIAN_POINT('Origin',(-39.,0.,0.));
#576=CARTESIAN_POINT('Origin',(-36.5,0.,0.));
#577=CARTESIAN_POINT('',(-34.2,43.25,-1.32410562007045E-14));
#578=CARTESIAN_POINT('Origin',(-34.2,0.,0.));
#579=CARTESIAN_POINT('Origin',(-39.,42.65,0.));
#580=CARTESIAN_POINT('',(-39.,42.65,0.));
#581=CARTESIAN_POINT('Origin',(-39.,0.,0.));
#582=CARTESIAN_POINT('Origin',(-27.8,0.,0.));
#583=CARTESIAN_POINT('',(-27.8,43.25,-2.64821124014089E-15));
#584=CARTESIAN_POINT('Origin',(-27.8,0.,0.));
#585=CARTESIAN_POINT('',(-28.,43.05,-1.31798258830133E-14));
#586=CARTESIAN_POINT('Origin',(-28.,0.,0.));
#587=CARTESIAN_POINT('Origin',(-25.5,0.,0.));
#588=CARTESIAN_POINT('',(-23.2,43.25,-1.32410562007045E-14));
#589=CARTESIAN_POINT('Origin',(-23.2,0.,0.));
#590=CARTESIAN_POINT('Origin',(-28.,42.65,0.));
#591=CARTESIAN_POINT('',(-28.,42.65,0.));
#592=CARTESIAN_POINT('Origin',(-28.,0.,0.));
#593=CARTESIAN_POINT('Origin',(-34.2,0.,0.));
#594=CARTESIAN_POINT('',(-34.,43.05,-2.63596517660267E-15));
#595=CARTESIAN_POINT('Origin',(-34.,0.,0.));
#596=CARTESIAN_POINT('Origin',(-34.,43.25,0.));
#597=CARTESIAN_POINT('',(-34.,42.65,0.));
#598=CARTESIAN_POINT('Origin',(-34.,0.,0.));
#599=CARTESIAN_POINT('Origin',(-23.2,0.,0.));
#600=CARTESIAN_POINT('',(-23.,43.05,-2.63596517660267E-15));
#601=CARTESIAN_POINT('Origin',(-23.,0.,0.));
#602=CARTESIAN_POINT('Origin',(-23.,43.25,0.));
#603=CARTESIAN_POINT('',(-23.,42.65,0.));
#604=CARTESIAN_POINT('Origin',(-23.,0.,0.));
#605=CARTESIAN_POINT('Origin',(-17.2,0.,0.));
#606=CARTESIAN_POINT('',(-17.,42.45,-2.599226985988E-15));
#607=CARTESIAN_POINT('Origin',(-17.,0.,0.));
#608=CARTESIAN_POINT('',(-17.2,42.65,-1.30573652476311E-14));
#609=CARTESIAN_POINT('Origin',(-17.2,0.,0.));
#610=CARTESIAN_POINT('Origin',(-17.,42.65,0.));
#611=CARTESIAN_POINT('',(-17.,40.5,0.));
#612=CARTESIAN_POINT('Origin',(-17.,0.,0.));
#613=CARTESIAN_POINT('Origin',(-20.,0.,0.));
#614=CARTESIAN_POINT('Origin',(-43.4,0.,0.));
#615=CARTESIAN_POINT('',(-45.,44.9,-2.74924126433124E-15));
#616=CARTESIAN_POINT('Origin',(-45.,0.,0.));
#617=CARTESIAN_POINT('Origin',(-45.,46.5,0.));
#618=CARTESIAN_POINT('',(-45.,42.65,0.));
#619=CARTESIAN_POINT('Origin',(-45.,0.,0.));
#620=CARTESIAN_POINT('Origin',(-18.95,0.,0.));
#621=CARTESIAN_POINT('',(-17.9,55.,0.));
#622=CARTESIAN_POINT('Origin',(-17.9,0.,0.));
#623=CARTESIAN_POINT('Origin',(-10.,0.,0.));
#624=CARTESIAN_POINT('',(-2.1,55.,0.));
#625=CARTESIAN_POINT('Origin',(-2.1,0.,0.));
#626=CARTESIAN_POINT('Origin',(-1.05,0.,0.));
#627=CARTESIAN_POINT('',(0.,52.9,0.));
#628=CARTESIAN_POINT('Origin',(0.,0.,0.));
#629=CARTESIAN_POINT('Origin',(0.,49.5,0.));
#630=CARTESIAN_POINT('',(0.,49.5,0.));
#631=CARTESIAN_POINT('Origin',(0.,0.,0.));
#632=CARTESIAN_POINT('Origin',(-4.,0.,0.));
#633=CARTESIAN_POINT('',(-8.,47.4,0.));
#634=CARTESIAN_POINT('Origin',(-8.,0.,0.));
#635=CARTESIAN_POINT('Origin',(-9.75,0.,0.));
#636=CARTESIAN_POINT('',(-11.5,47.4,0.));
#637=CARTESIAN_POINT('Origin',(-11.5,0.,0.));
#638=CARTESIAN_POINT('Origin',(-11.5,42.5,0.));
#639=CARTESIAN_POINT('',(-11.5,42.5,0.));
#640=CARTESIAN_POINT('Origin',(-11.5,0.,0.));
#641=CARTESIAN_POINT('Origin',(-9.75,0.,0.));
#642=CARTESIAN_POINT('',(-8.,42.5,0.));
#643=CARTESIAN_POINT('Origin',(-8.,0.,0.));
#644=CARTESIAN_POINT('Origin',(-8.,40.5,0.));
#645=CARTESIAN_POINT('',(-8.,40.5,0.));
#646=CARTESIAN_POINT('Origin',(-8.,0.,0.));
#647=CARTESIAN_POINT('Origin',(-12.5,0.,0.));
#648=CARTESIAN_POINT('Origin',(-31.,0.,0.));
#649=CARTESIAN_POINT('Origin',(-42.,0.,0.));
#650=UNCERTAINTY_MEASURE_WITH_UNIT(LENGTH_MEASURE(0.01),#654,
'DISTANCE_ACCURACY_VALUE',
'Maximum model space distance between geometric entities at asserted c
onnectivities');
#651=UNCERTAINTY_MEASURE_WITH_UNIT(LENGTH_MEASURE(1.E-6),#654,
'DISTANCE_ACCURACY_VALUE',
'Maximum model space distance between geometric entities at asserted c
onnectivities');
#652=(
GEOMETRIC_REPRESENTATION_CONTEXT(3)
GLOBAL_UNCERTAINTY_ASSIGNED_CONTEXT((#650))
GLOBAL_UNIT_ASSIGNED_CONTEXT((#654,#657,#655))
REPRESENTATION_CONTEXT('','3D')
);
#653=(
GEOMETRIC_REPRESENTATION_CONTEXT(3)
GLOBAL_UNCERTAINTY_ASSIGNED_CONTEXT((#651))
GLOBAL_UNIT_ASSIGNED_CONTEXT((#654,#657,#655))
REPRESENTATION_CONTEXT('','3D')
);
#654=(
LENGTH_UNIT()
NAMED_UNIT(*)
SI_UNIT(.MILLI.,.METRE.)
);
#655=(
NAMED_UNIT(*)
SI_UNIT($,.STERADIAN.)
SOLID_ANGLE_UNIT()
);
#656=DIMENSIONAL_EXPONENTS(0.,0.,0.,0.,0.,0.,0.);
#657=(
CONVERSION_BASED_UNIT('degree',#659)
NAMED_UNIT(#656)
PLANE_ANGLE_UNIT()
);
#658=(
NAMED_UNIT(*)
PLANE_ANGLE_UNIT()
SI_UNIT($,.RADIAN.)
);
#659=PLANE_ANGLE_MEASURE_WITH_UNIT(PLANE_ANGLE_MEASURE(0.01745329252),#658);
#660=SHAPE_DEFINITION_REPRESENTATION(#661,#662);
#661=PRODUCT_DEFINITION_SHAPE('',$,#664);
#662=SHAPE_REPRESENTATION('',(#376),#652);
#663=DESIGN_CONTEXT('part definition',#668,'design');
#664=PRODUCT_DEFINITION('20104080000','20104080000',#665,#663);
#665=PRODUCT_DEFINITION_FORMATION('',$,#670);
#666=PRODUCT_RELATED_PRODUCT_CATEGORY('20104080000','20104080000',(#670));
#667=APPLICATION_PROTOCOL_DEFINITION('international standard',
'ap203_configuration_controlled_3d_design_of_mechanical_parts_and_asse
mblies_mim_lf',2004,#668);
#668=APPLICATION_CONTEXT(
'Configuration Controlled 3D Design of Mechanical Parts and Assemblies');
#669=MECHANICAL_CONTEXT('part definition',#668,'mechanical');
#670=PRODUCT('20104080000','20104080000',$,(#669));
#671=PRESENTATION_STYLE_ASSIGNMENT((#672));
#672=SURFACE_STYLE_USAGE(.BOTH.,#673);
#673=SURFACE_SIDE_STYLE($,(#674));
#674=SURFACE_STYLE_FILL_AREA(#675);
#675=FILL_AREA_STYLE($,(#676));
#676=FILL_AREA_STYLE_COLOUR($,#677);
#677=COLOUR_RGB('',0.745098039215686,0.737254901960784,0.729411764705882);
ENDSEC;
END-ISO-10303-21;
