ISO-10303-21;
HEADER;
/* Generated by software containing ST-Developer
 * from STEP Tools, Inc. (www.steptools.com) 
 */

FILE_DESCRIPTION(
/* description */ (
'Ku\X2\017E\X0\elov\X\E9 hrdlo KH pro p\X2\0159\X0\iva\X2\0159\X0\en\X\ED
 dle DIN silnost\X2\011B\X0\nn\X\E9'),
/* implementation_level */ '2;1');

FILE_NAME(
/* name */ 
'C:\\Vault_Workspace\\DATA\\Katalog Bupospol\\2 Potrubn\X\ED d\X\EDly\\
2.0 \X2\0160\X0\rouben\X\ED\\20112\\20112 025.stp',
/* time_stamp */ '2015-11-25T13:31:45+01:00',
/* author */ ('Struska'),
/* organization */ ('Bupospol, Armaturka Koukol, spol. s r.o.'),
/* preprocessor_version */ 'ST-DEVELOPER v15.6',
/* originating_system */ 'Autodesk Inventor 2015',
/* authorisation */ '');

FILE_SCHEMA (('CONFIG_CONTROL_DESIGN'));
ENDSEC;

DATA;
#10=MECHANICAL_DESIGN_GEOMETRIC_PRESENTATION_REPRESENTATION('',(#13),#223);
#11=SHAPE_REPRESENTATION_RELATIONSHIP('SRR','None',#232,#12);
#12=ADVANCED_BREP_SHAPE_REPRESENTATION($,(#14),#222);
#13=STYLED_ITEM('',(#241),#14);
#14=MANIFOLD_SOLID_BREP('T\X2\011B\X0\leso2',#125);
#15=CONICAL_SURFACE('',#137,14.75,60.0000000000001);
#16=CONICAL_SURFACE('',#142,20.7361167591387,15.);
#17=CONICAL_SURFACE('',#144,16.2361167591387,85.);
#18=PLANE('',#132);
#19=PLANE('',#134);
#20=PLANE('',#140);
#21=CYLINDRICAL_SURFACE('',#130,15.5);
#22=CYLINDRICAL_SURFACE('',#138,17.5);
#23=CYLINDRICAL_SURFACE('',#146,13.);
#24=FACE_BOUND('',#45,.T.);
#25=FACE_BOUND('',#47,.T.);
#26=FACE_BOUND('',#49,.T.);
#27=FACE_BOUND('',#51,.T.);
#28=FACE_BOUND('',#53,.T.);
#29=FACE_BOUND('',#55,.T.);
#30=FACE_BOUND('',#57,.T.);
#31=FACE_BOUND('',#59,.T.);
#32=FACE_BOUND('',#61,.T.);
#33=FACE_BOUND('',#63,.T.);
#34=FACE_OUTER_BOUND('',#44,.T.);
#35=FACE_OUTER_BOUND('',#46,.T.);
#36=FACE_OUTER_BOUND('',#48,.T.);
#37=FACE_OUTER_BOUND('',#50,.T.);
#38=FACE_OUTER_BOUND('',#52,.T.);
#39=FACE_OUTER_BOUND('',#54,.T.);
#40=FACE_OUTER_BOUND('',#56,.T.);
#41=FACE_OUTER_BOUND('',#58,.T.);
#42=FACE_OUTER_BOUND('',#60,.T.);
#43=FACE_OUTER_BOUND('',#62,.T.);
#44=EDGE_LOOP('',(#94));
#45=EDGE_LOOP('',(#95));
#46=EDGE_LOOP('',(#96));
#47=EDGE_LOOP('',(#97));
#48=EDGE_LOOP('',(#98));
#49=EDGE_LOOP('',(#99));
#50=EDGE_LOOP('',(#100));
#51=EDGE_LOOP('',(#101));
#52=EDGE_LOOP('',(#102));
#53=EDGE_LOOP('',(#103));
#54=EDGE_LOOP('',(#104));
#55=EDGE_LOOP('',(#105));
#56=EDGE_LOOP('',(#106));
#57=EDGE_LOOP('',(#107));
#58=EDGE_LOOP('',(#108));
#59=EDGE_LOOP('',(#109));
#60=EDGE_LOOP('',(#110));
#61=EDGE_LOOP('',(#111));
#62=EDGE_LOOP('',(#112));
#63=EDGE_LOOP('',(#113));
#64=CIRCLE('',#128,15.5);
#65=CIRCLE('',#129,17.1);
#66=CIRCLE('',#131,15.5);
#67=CIRCLE('',#133,17.5);
#68=CIRCLE('',#135,14.);
#69=CIRCLE('',#136,13.);
#70=CIRCLE('',#139,17.5);
#71=CIRCLE('',#141,22.);
#72=CIRCLE('',#143,19.4722335182774);
#73=CIRCLE('',#145,13.);
#74=VERTEX_POINT('',#191);
#75=VERTEX_POINT('',#193);
#76=VERTEX_POINT('',#196);
#77=VERTEX_POINT('',#199);
#78=VERTEX_POINT('',#202);
#79=VERTEX_POINT('',#204);
#80=VERTEX_POINT('',#208);
#81=VERTEX_POINT('',#211);
#82=VERTEX_POINT('',#214);
#83=VERTEX_POINT('',#217);
#84=EDGE_CURVE('',#74,#74,#64,.T.);
#85=EDGE_CURVE('',#75,#75,#65,.T.);
#86=EDGE_CURVE('',#76,#76,#66,.T.);
#87=EDGE_CURVE('',#77,#77,#67,.T.);
#88=EDGE_CURVE('',#78,#78,#68,.T.);
#89=EDGE_CURVE('',#79,#79,#69,.T.);
#90=EDGE_CURVE('',#80,#80,#70,.T.);
#91=EDGE_CURVE('',#81,#81,#71,.T.);
#92=EDGE_CURVE('',#82,#82,#72,.T.);
#93=EDGE_CURVE('',#83,#83,#73,.T.);
#94=ORIENTED_EDGE('',*,*,#84,.T.);
#95=ORIENTED_EDGE('',*,*,#85,.T.);
#96=ORIENTED_EDGE('',*,*,#86,.T.);
#97=ORIENTED_EDGE('',*,*,#84,.F.);
#98=ORIENTED_EDGE('',*,*,#87,.F.);
#99=ORIENTED_EDGE('',*,*,#85,.F.);
#100=ORIENTED_EDGE('',*,*,#88,.F.);
#101=ORIENTED_EDGE('',*,*,#89,.T.);
#102=ORIENTED_EDGE('',*,*,#88,.T.);
#103=ORIENTED_EDGE('',*,*,#86,.F.);
#104=ORIENTED_EDGE('',*,*,#87,.T.);
#105=ORIENTED_EDGE('',*,*,#90,.F.);
#106=ORIENTED_EDGE('',*,*,#91,.F.);
#107=ORIENTED_EDGE('',*,*,#90,.T.);
#108=ORIENTED_EDGE('',*,*,#91,.T.);
#109=ORIENTED_EDGE('',*,*,#92,.F.);
#110=ORIENTED_EDGE('',*,*,#92,.T.);
#111=ORIENTED_EDGE('',*,*,#93,.F.);
#112=ORIENTED_EDGE('',*,*,#93,.T.);
#113=ORIENTED_EDGE('',*,*,#89,.F.);
#114=TOROIDAL_SURFACE('',#127,17.1,1.6);
#115=ADVANCED_FACE('',(#34,#24),#114,.F.);
#116=ADVANCED_FACE('',(#35,#25),#21,.T.);
#117=ADVANCED_FACE('',(#36,#26),#18,.T.);
#118=ADVANCED_FACE('',(#37,#27),#19,.T.);
#119=ADVANCED_FACE('',(#38,#28),#15,.T.);
#120=ADVANCED_FACE('',(#39,#29),#22,.T.);
#121=ADVANCED_FACE('',(#40,#30),#20,.T.);
#122=ADVANCED_FACE('',(#41,#31),#16,.T.);
#123=ADVANCED_FACE('',(#42,#32),#17,.T.);
#124=ADVANCED_FACE('',(#43,#33),#23,.F.);
#125=CLOSED_SHELL('',(#115,#116,#117,#118,#119,#120,#121,#122,#123,#124));
#126=AXIS2_PLACEMENT_3D('placement',#189,#147,#148);
#127=AXIS2_PLACEMENT_3D('',#190,#149,#150);
#128=AXIS2_PLACEMENT_3D('',#192,#151,#152);
#129=AXIS2_PLACEMENT_3D('',#194,#153,#154);
#130=AXIS2_PLACEMENT_3D('',#195,#155,#156);
#131=AXIS2_PLACEMENT_3D('',#197,#157,#158);
#132=AXIS2_PLACEMENT_3D('',#198,#159,#160);
#133=AXIS2_PLACEMENT_3D('',#200,#161,#162);
#134=AXIS2_PLACEMENT_3D('',#201,#163,#164);
#135=AXIS2_PLACEMENT_3D('',#203,#165,#166);
#136=AXIS2_PLACEMENT_3D('',#205,#167,#168);
#137=AXIS2_PLACEMENT_3D('',#206,#169,#170);
#138=AXIS2_PLACEMENT_3D('',#207,#171,#172);
#139=AXIS2_PLACEMENT_3D('',#209,#173,#174);
#140=AXIS2_PLACEMENT_3D('',#210,#175,#176);
#141=AXIS2_PLACEMENT_3D('',#212,#177,#178);
#142=AXIS2_PLACEMENT_3D('',#213,#179,#180);
#143=AXIS2_PLACEMENT_3D('',#215,#181,#182);
#144=AXIS2_PLACEMENT_3D('',#216,#183,#184);
#145=AXIS2_PLACEMENT_3D('',#218,#185,#186);
#146=AXIS2_PLACEMENT_3D('',#219,#187,#188);
#147=DIRECTION('axis',(0.,0.,1.));
#148=DIRECTION('refdir',(1.,0.,0.));
#149=DIRECTION('center_axis',(1.,0.,0.));
#150=DIRECTION('ref_axis',(0.,0.,-1.));
#151=DIRECTION('center_axis',(1.,0.,0.));
#152=DIRECTION('ref_axis',(0.,-1.,1.83697019872103E-16));
#153=DIRECTION('center_axis',(-1.,0.,0.));
#154=DIRECTION('ref_axis',(0.,-1.,1.83697019872103E-16));
#155=DIRECTION('center_axis',(1.,0.,0.));
#156=DIRECTION('ref_axis',(0.,1.,0.));
#157=DIRECTION('center_axis',(1.,0.,0.));
#158=DIRECTION('ref_axis',(0.,0.,-1.));
#159=DIRECTION('center_axis',(-1.,0.,0.));
#160=DIRECTION('ref_axis',(0.,0.,1.));
#161=DIRECTION('center_axis',(1.,0.,0.));
#162=DIRECTION('ref_axis',(0.,0.,-1.));
#163=DIRECTION('center_axis',(-1.,0.,0.));
#164=DIRECTION('ref_axis',(0.,0.,1.));
#165=DIRECTION('center_axis',(1.,0.,0.));
#166=DIRECTION('ref_axis',(0.,0.,-1.));
#167=DIRECTION('center_axis',(1.,0.,0.));
#168=DIRECTION('ref_axis',(0.,0.,-1.));
#169=DIRECTION('center_axis',(1.,0.,0.));
#170=DIRECTION('ref_axis',(0.,1.,0.));
#171=DIRECTION('center_axis',(1.,0.,0.));
#172=DIRECTION('ref_axis',(0.,1.,0.));
#173=DIRECTION('center_axis',(1.,0.,0.));
#174=DIRECTION('ref_axis',(0.,0.,-1.));
#175=DIRECTION('center_axis',(-1.,0.,0.));
#176=DIRECTION('ref_axis',(0.,0.,1.));
#177=DIRECTION('center_axis',(1.,0.,0.));
#178=DIRECTION('ref_axis',(0.,0.,-1.));
#179=DIRECTION('center_axis',(-1.,0.,0.));
#180=DIRECTION('ref_axis',(0.,1.,0.));
#181=DIRECTION('center_axis',(1.,0.,0.));
#182=DIRECTION('ref_axis',(0.,0.,-1.));
#183=DIRECTION('center_axis',(-1.,0.,0.));
#184=DIRECTION('ref_axis',(0.,1.,0.));
#185=DIRECTION('center_axis',(1.,0.,0.));
#186=DIRECTION('ref_axis',(0.,0.,-1.));
#187=DIRECTION('center_axis',(1.,0.,0.));
#188=DIRECTION('ref_axis',(0.,1.,0.));
#189=CARTESIAN_POINT('',(0.,0.,0.));
#190=CARTESIAN_POINT('Origin',(-14.6,0.,0.));
#191=CARTESIAN_POINT('',(-14.6,15.5,-9.491012693392E-16));
#192=CARTESIAN_POINT('Origin',(-14.6,0.,0.));
#193=CARTESIAN_POINT('',(-13.,17.1,-5.23536506635494E-15));
#194=CARTESIAN_POINT('Origin',(-13.,0.,0.));
#195=CARTESIAN_POINT('Origin',(-17.0669872981078,0.,0.));
#196=CARTESIAN_POINT('',(-21.1339745962156,15.5,0.));
#197=CARTESIAN_POINT('Origin',(-21.1339745962156,0.,0.));
#198=CARTESIAN_POINT('Origin',(-13.,17.5,0.));
#199=CARTESIAN_POINT('',(-13.,17.5,0.));
#200=CARTESIAN_POINT('Origin',(-13.,0.,0.));
#201=CARTESIAN_POINT('Origin',(-22.,14.,0.));
#202=CARTESIAN_POINT('',(-22.,14.,0.));
#203=CARTESIAN_POINT('Origin',(-22.,0.,0.));
#204=CARTESIAN_POINT('',(-22.,13.,0.));
#205=CARTESIAN_POINT('Origin',(-22.,0.,0.));
#206=CARTESIAN_POINT('Origin',(-21.5669872981078,0.,0.));
#207=CARTESIAN_POINT('Origin',(-11.5,0.,0.));
#208=CARTESIAN_POINT('',(-10.,17.5,0.));
#209=CARTESIAN_POINT('Origin',(-10.,0.,0.));
#210=CARTESIAN_POINT('Origin',(-10.,22.,0.));
#211=CARTESIAN_POINT('',(-10.,22.,0.));
#212=CARTESIAN_POINT('Origin',(-10.,0.,0.));
#213=CARTESIAN_POINT('Origin',(-5.28312353027089,0.,0.));
#214=CARTESIAN_POINT('',(-0.566247060541783,19.4722335182774,0.));
#215=CARTESIAN_POINT('Origin',(-0.566247060541782,0.,0.));
#216=CARTESIAN_POINT('Origin',(-0.283123530270892,0.,0.));
#217=CARTESIAN_POINT('',(0.,13.,0.));
#218=CARTESIAN_POINT('Origin',(0.,0.,0.));
#219=CARTESIAN_POINT('Origin',(-11.,0.,0.));
#220=UNCERTAINTY_MEASURE_WITH_UNIT(LENGTH_MEASURE(0.01),#224,
'DISTANCE_ACCURACY_VALUE',
'Maximum model space distance between geometric entities at asserted c
onnectivities');
#221=UNCERTAINTY_MEASURE_WITH_UNIT(LENGTH_MEASURE(1.E-6),#224,
'DISTANCE_ACCURACY_VALUE',
'Maximum model space distance between geometric entities at asserted c
onnectivities');
#222=(
GEOMETRIC_REPRESENTATION_CONTEXT(3)
GLOBAL_UNCERTAINTY_ASSIGNED_CONTEXT((#220))
GLOBAL_UNIT_ASSIGNED_CONTEXT((#224,#227,#225))
REPRESENTATION_CONTEXT('','3D')
);
#223=(
GEOMETRIC_REPRESENTATION_CONTEXT(3)
GLOBAL_UNCERTAINTY_ASSIGNED_CONTEXT((#221))
GLOBAL_UNIT_ASSIGNED_CONTEXT((#224,#227,#225))
REPRESENTATION_CONTEXT('','3D')
);
#224=(
LENGTH_UNIT()
NAMED_UNIT(*)
SI_UNIT(.MILLI.,.METRE.)
);
#225=(
NAMED_UNIT(*)
SI_UNIT($,.STERADIAN.)
SOLID_ANGLE_UNIT()
);
#226=DIMENSIONAL_EXPONENTS(0.,0.,0.,0.,0.,0.,0.);
#227=(
CONVERSION_BASED_UNIT('degree',#229)
NAMED_UNIT(#226)
PLANE_ANGLE_UNIT()
);
#228=(
NAMED_UNIT(*)
PLANE_ANGLE_UNIT()
SI_UNIT($,.RADIAN.)
);
#229=PLANE_ANGLE_MEASURE_WITH_UNIT(PLANE_ANGLE_MEASURE(0.01745329252),#228);
#230=SHAPE_DEFINITION_REPRESENTATION(#231,#232);
#231=PRODUCT_DEFINITION_SHAPE('',$,#234);
#232=SHAPE_REPRESENTATION('',(#126),#222);
#233=DESIGN_CONTEXT('part definition',#238,'design');
#234=PRODUCT_DEFINITION('20112','20112',#235,#233);
#235=PRODUCT_DEFINITION_FORMATION('',$,#240);
#236=PRODUCT_RELATED_PRODUCT_CATEGORY('20112','20112',(#240));
#237=APPLICATION_PROTOCOL_DEFINITION('international standard',
'ap203_configuration_controlled_3d_design_of_mechanical_parts_and_asse
mblies_mim_lf',2004,#238);
#238=APPLICATION_CONTEXT(
'Configuration Controlled 3D Design of Mechanical Parts and Assemblies');
#239=MECHANICAL_CONTEXT('part definition',#238,'mechanical');
#240=PRODUCT('20112','20112',$,(#239));
#241=PRESENTATION_STYLE_ASSIGNMENT((#242));
#242=SURFACE_STYLE_USAGE(.BOTH.,#243);
#243=SURFACE_SIDE_STYLE($,(#244));
#244=SURFACE_STYLE_FILL_AREA(#245);
#245=FILL_AREA_STYLE($,(#246));
#246=FILL_AREA_STYLE_COLOUR($,#247);
#247=COLOUR_RGB('',0.745098039215686,0.737254901960784,0.729411764705882);
ENDSEC;
END-ISO-10303-21;
