ISO-10303-21;
HEADER;
/* Generated by software containing ST-Developer
 * from STEP Tools, Inc. (www.steptools.com) 
 */

FILE_DESCRIPTION(
/* description */ ('Ku\X2\017E\X0\elov\X\E9 hrdlo KH Bupospol'),
/* implementation_level */ '2;1');

FILE_NAME(
/* name */ 
'C:\\Vault_Workspace\\DATA\\Katalog Bupospol\\2 Potrubn\X\ED d\X\EDly\\
2.0 \X2\0160\X0\rouben\X\ED\\20113\\20113\\20113050000.stp',
/* time_stamp */ '2016-01-11T08:26:56+01:00',
/* author */ ('Struska'),
/* organization */ ('Bupospol'),
/* preprocessor_version */ 'ST-DEVELOPER v15.6',
/* originating_system */ 'Autodesk Inventor 2015',
/* authorisation */ '');

FILE_SCHEMA (('CONFIG_CONTROL_DESIGN'));
ENDSEC;

DATA;
#10=MECHANICAL_DESIGN_GEOMETRIC_PRESENTATION_REPRESENTATION('',(#126,#124,
#128,#127,#125,#132,#131,#129,#134,#135,#133,#130),#254);
#11=SHAPE_REPRESENTATION_RELATIONSHIP('SRR','None',#263,#12);
#12=ADVANCED_BREP_SHAPE_REPRESENTATION($,(#13),#253);
#13=MANIFOLD_SOLID_BREP('T\X2\011B\X0\leso1',#147);
#14=CONICAL_SURFACE('',#159,26.5,60.0000000000002);
#15=CONICAL_SURFACE('',#166,32.8,14.9999999999999);
#16=PLANE('',#154);
#17=PLANE('',#156);
#18=PLANE('',#162);
#19=PLANE('',#168);
#20=CYLINDRICAL_SURFACE('',#152,27.);
#21=CYLINDRICAL_SURFACE('',#160,30.5);
#22=CYLINDRICAL_SURFACE('',#164,33.5);
#23=CYLINDRICAL_SURFACE('',#170,25.);
#24=FACE_BOUND('',#47,.T.);
#25=FACE_BOUND('',#49,.T.);
#26=FACE_BOUND('',#51,.T.);
#27=FACE_BOUND('',#53,.T.);
#28=FACE_BOUND('',#55,.T.);
#29=FACE_BOUND('',#57,.T.);
#30=FACE_BOUND('',#59,.T.);
#31=FACE_BOUND('',#61,.T.);
#32=FACE_BOUND('',#63,.T.);
#33=FACE_BOUND('',#65,.T.);
#34=FACE_BOUND('',#67,.T.);
#35=FACE_OUTER_BOUND('',#46,.T.);
#36=FACE_OUTER_BOUND('',#48,.T.);
#37=FACE_OUTER_BOUND('',#50,.T.);
#38=FACE_OUTER_BOUND('',#52,.T.);
#39=FACE_OUTER_BOUND('',#54,.T.);
#40=FACE_OUTER_BOUND('',#56,.T.);
#41=FACE_OUTER_BOUND('',#58,.T.);
#42=FACE_OUTER_BOUND('',#60,.T.);
#43=FACE_OUTER_BOUND('',#62,.T.);
#44=FACE_OUTER_BOUND('',#64,.T.);
#45=FACE_OUTER_BOUND('',#66,.T.);
#46=EDGE_LOOP('',(#101));
#47=EDGE_LOOP('',(#102));
#48=EDGE_LOOP('',(#103));
#49=EDGE_LOOP('',(#104));
#50=EDGE_LOOP('',(#105));
#51=EDGE_LOOP('',(#106));
#52=EDGE_LOOP('',(#107));
#53=EDGE_LOOP('',(#108));
#54=EDGE_LOOP('',(#109));
#55=EDGE_LOOP('',(#110));
#56=EDGE_LOOP('',(#111));
#57=EDGE_LOOP('',(#112));
#58=EDGE_LOOP('',(#113));
#59=EDGE_LOOP('',(#114));
#60=EDGE_LOOP('',(#115));
#61=EDGE_LOOP('',(#116));
#62=EDGE_LOOP('',(#117));
#63=EDGE_LOOP('',(#118));
#64=EDGE_LOOP('',(#119));
#65=EDGE_LOOP('',(#120));
#66=EDGE_LOOP('',(#121));
#67=EDGE_LOOP('',(#122));
#68=CIRCLE('',#150,27.);
#69=CIRCLE('',#151,28.6);
#70=CIRCLE('',#153,27.);
#71=CIRCLE('',#155,30.5);
#72=CIRCLE('',#157,26.);
#73=CIRCLE('',#158,25.);
#74=CIRCLE('',#161,30.5);
#75=CIRCLE('',#163,33.5);
#76=CIRCLE('',#165,33.5);
#77=CIRCLE('',#167,32.1);
#78=CIRCLE('',#169,25.);
#79=VERTEX_POINT('',#219);
#80=VERTEX_POINT('',#221);
#81=VERTEX_POINT('',#224);
#82=VERTEX_POINT('',#227);
#83=VERTEX_POINT('',#230);
#84=VERTEX_POINT('',#232);
#85=VERTEX_POINT('',#236);
#86=VERTEX_POINT('',#239);
#87=VERTEX_POINT('',#242);
#88=VERTEX_POINT('',#245);
#89=VERTEX_POINT('',#248);
#90=EDGE_CURVE('',#79,#79,#68,.T.);
#91=EDGE_CURVE('',#80,#80,#69,.T.);
#92=EDGE_CURVE('',#81,#81,#70,.T.);
#93=EDGE_CURVE('',#82,#82,#71,.T.);
#94=EDGE_CURVE('',#83,#83,#72,.T.);
#95=EDGE_CURVE('',#84,#84,#73,.T.);
#96=EDGE_CURVE('',#85,#85,#74,.T.);
#97=EDGE_CURVE('',#86,#86,#75,.T.);
#98=EDGE_CURVE('',#87,#87,#76,.T.);
#99=EDGE_CURVE('',#88,#88,#77,.T.);
#100=EDGE_CURVE('',#89,#89,#78,.T.);
#101=ORIENTED_EDGE('',*,*,#90,.T.);
#102=ORIENTED_EDGE('',*,*,#91,.T.);
#103=ORIENTED_EDGE('',*,*,#92,.T.);
#104=ORIENTED_EDGE('',*,*,#90,.F.);
#105=ORIENTED_EDGE('',*,*,#93,.F.);
#106=ORIENTED_EDGE('',*,*,#91,.F.);
#107=ORIENTED_EDGE('',*,*,#94,.F.);
#108=ORIENTED_EDGE('',*,*,#95,.T.);
#109=ORIENTED_EDGE('',*,*,#92,.F.);
#110=ORIENTED_EDGE('',*,*,#94,.T.);
#111=ORIENTED_EDGE('',*,*,#96,.F.);
#112=ORIENTED_EDGE('',*,*,#93,.T.);
#113=ORIENTED_EDGE('',*,*,#97,.F.);
#114=ORIENTED_EDGE('',*,*,#96,.T.);
#115=ORIENTED_EDGE('',*,*,#98,.F.);
#116=ORIENTED_EDGE('',*,*,#97,.T.);
#117=ORIENTED_EDGE('',*,*,#99,.F.);
#118=ORIENTED_EDGE('',*,*,#98,.T.);
#119=ORIENTED_EDGE('',*,*,#99,.T.);
#120=ORIENTED_EDGE('',*,*,#100,.F.);
#121=ORIENTED_EDGE('',*,*,#95,.F.);
#122=ORIENTED_EDGE('',*,*,#100,.T.);
#123=TOROIDAL_SURFACE('',#149,28.6,1.6);
#124=STYLED_ITEM('',(#273),#136);
#125=STYLED_ITEM('',(#273),#137);
#126=STYLED_ITEM('',(#273),#138);
#127=STYLED_ITEM('',(#273),#139);
#128=STYLED_ITEM('',(#273),#140);
#129=STYLED_ITEM('',(#273),#141);
#130=STYLED_ITEM('',(#273),#142);
#131=STYLED_ITEM('',(#273),#143);
#132=STYLED_ITEM('',(#273),#144);
#133=STYLED_ITEM('',(#273),#145);
#134=STYLED_ITEM('',(#273),#146);
#135=STYLED_ITEM('',(#272),#13);
#136=ADVANCED_FACE('',(#35,#24),#123,.F.);
#137=ADVANCED_FACE('',(#36,#25),#20,.T.);
#138=ADVANCED_FACE('',(#37,#26),#16,.T.);
#139=ADVANCED_FACE('',(#38,#27),#17,.T.);
#140=ADVANCED_FACE('',(#39,#28),#14,.T.);
#141=ADVANCED_FACE('',(#40,#29),#21,.T.);
#142=ADVANCED_FACE('',(#41,#30),#18,.T.);
#143=ADVANCED_FACE('',(#42,#31),#22,.T.);
#144=ADVANCED_FACE('',(#43,#32),#15,.T.);
#145=ADVANCED_FACE('',(#44,#33),#19,.T.);
#146=ADVANCED_FACE('',(#45,#34),#23,.F.);
#147=CLOSED_SHELL('',(#136,#137,#138,#139,#140,#141,#142,#143,#144,#145,
#146));
#148=AXIS2_PLACEMENT_3D('placement',#217,#171,#172);
#149=AXIS2_PLACEMENT_3D('',#218,#173,#174);
#150=AXIS2_PLACEMENT_3D('',#220,#175,#176);
#151=AXIS2_PLACEMENT_3D('',#222,#177,#178);
#152=AXIS2_PLACEMENT_3D('',#223,#179,#180);
#153=AXIS2_PLACEMENT_3D('',#225,#181,#182);
#154=AXIS2_PLACEMENT_3D('',#226,#183,#184);
#155=AXIS2_PLACEMENT_3D('',#228,#185,#186);
#156=AXIS2_PLACEMENT_3D('',#229,#187,#188);
#157=AXIS2_PLACEMENT_3D('',#231,#189,#190);
#158=AXIS2_PLACEMENT_3D('',#233,#191,#192);
#159=AXIS2_PLACEMENT_3D('',#234,#193,#194);
#160=AXIS2_PLACEMENT_3D('',#235,#195,#196);
#161=AXIS2_PLACEMENT_3D('',#237,#197,#198);
#162=AXIS2_PLACEMENT_3D('',#238,#199,#200);
#163=AXIS2_PLACEMENT_3D('',#240,#201,#202);
#164=AXIS2_PLACEMENT_3D('',#241,#203,#204);
#165=AXIS2_PLACEMENT_3D('',#243,#205,#206);
#166=AXIS2_PLACEMENT_3D('',#244,#207,#208);
#167=AXIS2_PLACEMENT_3D('',#246,#209,#210);
#168=AXIS2_PLACEMENT_3D('',#247,#211,#212);
#169=AXIS2_PLACEMENT_3D('',#249,#213,#214);
#170=AXIS2_PLACEMENT_3D('',#250,#215,#216);
#171=DIRECTION('axis',(0.,0.,1.));
#172=DIRECTION('refdir',(1.,0.,0.));
#173=DIRECTION('center_axis',(1.,0.,0.));
#174=DIRECTION('ref_axis',(0.,0.,-1.));
#175=DIRECTION('center_axis',(1.,0.,0.));
#176=DIRECTION('ref_axis',(0.,-1.,1.83690953073357E-16));
#177=DIRECTION('center_axis',(-1.,0.,0.));
#178=DIRECTION('ref_axis',(0.,-1.,1.83690953073357E-16));
#179=DIRECTION('center_axis',(1.,0.,0.));
#180=DIRECTION('ref_axis',(0.,1.,0.));
#181=DIRECTION('center_axis',(1.,0.,0.));
#182=DIRECTION('ref_axis',(0.,0.,-1.));
#183=DIRECTION('center_axis',(-1.,0.,0.));
#184=DIRECTION('ref_axis',(0.,0.,1.));
#185=DIRECTION('center_axis',(1.,0.,0.));
#186=DIRECTION('ref_axis',(0.,0.,-1.));
#187=DIRECTION('center_axis',(-1.,0.,0.));
#188=DIRECTION('ref_axis',(0.,0.,1.));
#189=DIRECTION('center_axis',(1.,0.,0.));
#190=DIRECTION('ref_axis',(0.,0.,-1.));
#191=DIRECTION('center_axis',(1.,0.,0.));
#192=DIRECTION('ref_axis',(0.,0.,-1.));
#193=DIRECTION('center_axis',(1.,0.,0.));
#194=DIRECTION('ref_axis',(0.,1.,0.));
#195=DIRECTION('center_axis',(1.,0.,0.));
#196=DIRECTION('ref_axis',(0.,1.,0.));
#197=DIRECTION('center_axis',(1.,0.,0.));
#198=DIRECTION('ref_axis',(0.,0.,-1.));
#199=DIRECTION('center_axis',(-1.,0.,0.));
#200=DIRECTION('ref_axis',(0.,0.,1.));
#201=DIRECTION('center_axis',(1.,0.,0.));
#202=DIRECTION('ref_axis',(0.,0.,-1.));
#203=DIRECTION('center_axis',(1.,0.,0.));
#204=DIRECTION('ref_axis',(0.,1.,0.));
#205=DIRECTION('center_axis',(1.,0.,0.));
#206=DIRECTION('ref_axis',(0.,0.,-1.));
#207=DIRECTION('center_axis',(-1.,0.,0.));
#208=DIRECTION('ref_axis',(0.,1.,0.));
#209=DIRECTION('center_axis',(1.,0.,0.));
#210=DIRECTION('ref_axis',(0.,0.,-1.));
#211=DIRECTION('center_axis',(1.,0.,0.));
#212=DIRECTION('ref_axis',(0.,0.,-1.));
#213=DIRECTION('center_axis',(1.,0.,0.));
#214=DIRECTION('ref_axis',(0.,0.,-1.));
#215=DIRECTION('center_axis',(1.,0.,0.));
#216=DIRECTION('ref_axis',(0.,1.,0.));
#217=CARTESIAN_POINT('',(0.,0.,0.));
#218=CARTESIAN_POINT('Origin',(-12.6,0.,0.));
#219=CARTESIAN_POINT('',(-12.6,27.,-1.65321857766021E-15));
#220=CARTESIAN_POINT('Origin',(-12.6,0.,0.));
#221=CARTESIAN_POINT('',(-11.,28.6,-8.75593542983E-15));
#222=CARTESIAN_POINT('Origin',(-11.,0.,0.));
#223=CARTESIAN_POINT('Origin',(-17.7113248654052,0.,0.));
#224=CARTESIAN_POINT('',(-24.4226497308104,27.,0.));
#225=CARTESIAN_POINT('Origin',(-24.4226497308104,0.,0.));
#226=CARTESIAN_POINT('Origin',(-11.,30.5,0.));
#227=CARTESIAN_POINT('',(-11.,30.5,0.));
#228=CARTESIAN_POINT('Origin',(-11.,0.,0.));
#229=CARTESIAN_POINT('Origin',(-25.,26.,0.));
#230=CARTESIAN_POINT('',(-25.,26.,0.));
#231=CARTESIAN_POINT('Origin',(-25.,0.,0.));
#232=CARTESIAN_POINT('',(-25.,25.,0.));
#233=CARTESIAN_POINT('Origin',(-25.,0.,0.));
#234=CARTESIAN_POINT('Origin',(-24.7113248654052,0.,0.));
#235=CARTESIAN_POINT('Origin',(-9.50000000000001,0.,0.));
#236=CARTESIAN_POINT('',(-8.00000000000001,30.5,0.));
#237=CARTESIAN_POINT('Origin',(-8.00000000000001,0.,0.));
#238=CARTESIAN_POINT('Origin',(-8.00000000000001,33.5,0.));
#239=CARTESIAN_POINT('',(-8.00000000000001,33.5,0.));
#240=CARTESIAN_POINT('Origin',(-8.00000000000001,0.,0.));
#241=CARTESIAN_POINT('Origin',(-6.61243556529822,0.,0.));
#242=CARTESIAN_POINT('',(-5.22487113059644,33.5,0.));
#243=CARTESIAN_POINT('Origin',(-5.22487113059644,0.,0.));
#244=CARTESIAN_POINT('Origin',(-2.61243556529822,0.,0.));
#245=CARTESIAN_POINT('',(-8.88178419700125E-15,32.1,0.));
#246=CARTESIAN_POINT('Origin',(-8.88178419700125E-15,0.,0.));
#247=CARTESIAN_POINT('Origin',(-7.65404249467096E-15,25.,0.));
#248=CARTESIAN_POINT('',(-7.65404249467096E-15,25.,0.));
#249=CARTESIAN_POINT('Origin',(-6.66133814775094E-15,0.,0.));
#250=CARTESIAN_POINT('Origin',(-12.5,0.,0.));
#251=UNCERTAINTY_MEASURE_WITH_UNIT(LENGTH_MEASURE(0.01),#255,
'DISTANCE_ACCURACY_VALUE',
'Maximum model space distance between geometric entities at asserted c
onnectivities');
#252=UNCERTAINTY_MEASURE_WITH_UNIT(LENGTH_MEASURE(1.E-6),#255,
'DISTANCE_ACCURACY_VALUE',
'Maximum model space distance between geometric entities at asserted c
onnectivities');
#253=(
GEOMETRIC_REPRESENTATION_CONTEXT(3)
GLOBAL_UNCERTAINTY_ASSIGNED_CONTEXT((#251))
GLOBAL_UNIT_ASSIGNED_CONTEXT((#255,#258,#256))
REPRESENTATION_CONTEXT('','3D')
);
#254=(
GEOMETRIC_REPRESENTATION_CONTEXT(3)
GLOBAL_UNCERTAINTY_ASSIGNED_CONTEXT((#252))
GLOBAL_UNIT_ASSIGNED_CONTEXT((#255,#258,#256))
REPRESENTATION_CONTEXT('','3D')
);
#255=(
LENGTH_UNIT()
NAMED_UNIT(*)
SI_UNIT(.MILLI.,.METRE.)
);
#256=(
NAMED_UNIT(*)
SI_UNIT($,.STERADIAN.)
SOLID_ANGLE_UNIT()
);
#257=DIMENSIONAL_EXPONENTS(0.,0.,0.,0.,0.,0.,0.);
#258=(
CONVERSION_BASED_UNIT('degree',#260)
NAMED_UNIT(#257)
PLANE_ANGLE_UNIT()
);
#259=(
NAMED_UNIT(*)
PLANE_ANGLE_UNIT()
SI_UNIT($,.RADIAN.)
);
#260=PLANE_ANGLE_MEASURE_WITH_UNIT(PLANE_ANGLE_MEASURE(0.01745329252),#259);
#261=SHAPE_DEFINITION_REPRESENTATION(#262,#263);
#262=PRODUCT_DEFINITION_SHAPE('',$,#265);
#263=SHAPE_REPRESENTATION('',(#148),#253);
#264=DESIGN_CONTEXT('part definition',#269,'design');
#265=PRODUCT_DEFINITION('20113050000','20113050000',#266,#264);
#266=PRODUCT_DEFINITION_FORMATION('',$,#271);
#267=PRODUCT_RELATED_PRODUCT_CATEGORY('20113050000','20113050000',(#271));
#268=APPLICATION_PROTOCOL_DEFINITION('international standard',
'ap203_configuration_controlled_3d_design_of_mechanical_parts_and_asse
mblies_mim_lf',2004,#269);
#269=APPLICATION_CONTEXT(
'Configuration Controlled 3D Design of Mechanical Parts and Assemblies');
#270=MECHANICAL_CONTEXT('part definition',#269,'mechanical');
#271=PRODUCT('20113050000','20113050000',$,(#270));
#272=PRESENTATION_STYLE_ASSIGNMENT((#274));
#273=PRESENTATION_STYLE_ASSIGNMENT((#275));
#274=SURFACE_STYLE_USAGE(.BOTH.,#276);
#275=SURFACE_STYLE_USAGE(.BOTH.,#277);
#276=SURFACE_SIDE_STYLE($,(#278));
#277=SURFACE_SIDE_STYLE($,(#279));
#278=SURFACE_STYLE_FILL_AREA(#280);
#279=SURFACE_STYLE_FILL_AREA(#281);
#280=FILL_AREA_STYLE($,(#282));
#281=FILL_AREA_STYLE($,(#283));
#282=FILL_AREA_STYLE_COLOUR($,#284);
#283=FILL_AREA_STYLE_COLOUR($,#285);
#284=COLOUR_RGB('',0.745098039215686,0.737254901960784,0.729411764705882);
#285=COLOUR_RGB('',0.745098039215686,0.737254901960784,0.729411764705882);
ENDSEC;
END-ISO-10303-21;
