ISO-10303-21;
HEADER;
/* Generated by software containing ST-Developer
 * from STEP Tools, Inc. (www.steptools.com) 
 */

FILE_DESCRIPTION(
/* description */ ('Hrdlo ku\X2\017E\X0\elov\X\E9 KH pro zav\X\E1lcov\X\E1
n\X\ED'),
/* implementation_level */ '2;1');

FILE_NAME(
/* name */ 
'C:\\Vault_Workspace\\DATA\\Katalog Bupospol\\2 Potrubn\X\ED d\X\EDly\\
2.0 \X2\0160\X0\rouben\X\ED\\20114\\20114\\20114025000.stp',
/* time_stamp */ '2016-01-11T08:51:20+01:00',
/* author */ ('Struska'),
/* organization */ ('Bupospol'),
/* preprocessor_version */ 'ST-DEVELOPER v15.6',
/* originating_system */ 'Autodesk Inventor 2015',
/* authorisation */ '');

FILE_SCHEMA (('CONFIG_CONTROL_DESIGN'));
ENDSEC;

DATA;
#10=MECHANICAL_DESIGN_GEOMETRIC_PRESENTATION_REPRESENTATION('',(#278,#271,
#276,#255,#261,#274,#256,#254,#257,#268,#260,#272,#267,#259,#262,#273,#269,
#270,#263,#265,#266,#277,#258,#264,#275),#527);
#11=SHAPE_REPRESENTATION_RELATIONSHIP('SRR','None',#536,#12);
#12=ADVANCED_BREP_SHAPE_REPRESENTATION($,(#13),#526);
#13=MANIFOLD_SOLID_BREP('T\X2\011B\X0\leso1',#303);
#14=CONICAL_SURFACE('',#348,20.730115444024,15.);
#15=CONICAL_SURFACE('',#350,16.480115444024,85.);
#16=PLANE('',#310);
#17=PLANE('',#317);
#18=PLANE('',#324);
#19=PLANE('',#328);
#20=PLANE('',#332);
#21=PLANE('',#337);
#22=PLANE('',#342);
#23=PLANE('',#352);
#24=CYLINDRICAL_SURFACE('',#308,17.5);
#25=CYLINDRICAL_SURFACE('',#315,14.4);
#26=CYLINDRICAL_SURFACE('',#322,14.4);
#27=CYLINDRICAL_SURFACE('',#339,14.1);
#28=CYLINDRICAL_SURFACE('',#344,13.);
#29=CYLINDRICAL_SURFACE('',#346,14.1);
#30=CYLINDRICAL_SURFACE('',#347,14.1);
#31=FACE_BOUND('',#80,.T.);
#32=FACE_BOUND('',#82,.T.);
#33=FACE_BOUND('',#84,.T.);
#34=FACE_BOUND('',#86,.T.);
#35=FACE_BOUND('',#88,.T.);
#36=FACE_BOUND('',#90,.T.);
#37=FACE_BOUND('',#92,.T.);
#38=FACE_BOUND('',#94,.T.);
#39=FACE_BOUND('',#96,.T.);
#40=FACE_BOUND('',#98,.T.);
#41=FACE_BOUND('',#100,.T.);
#42=FACE_BOUND('',#102,.T.);
#43=FACE_BOUND('',#104,.T.);
#44=FACE_BOUND('',#106,.T.);
#45=FACE_BOUND('',#108,.T.);
#46=FACE_BOUND('',#110,.T.);
#47=FACE_BOUND('',#112,.T.);
#48=FACE_BOUND('',#114,.T.);
#49=FACE_BOUND('',#116,.T.);
#50=FACE_BOUND('',#118,.T.);
#51=FACE_BOUND('',#120,.T.);
#52=FACE_BOUND('',#122,.T.);
#53=FACE_BOUND('',#124,.T.);
#54=FACE_BOUND('',#126,.T.);
#55=FACE_OUTER_BOUND('',#79,.T.);
#56=FACE_OUTER_BOUND('',#81,.T.);
#57=FACE_OUTER_BOUND('',#83,.T.);
#58=FACE_OUTER_BOUND('',#85,.T.);
#59=FACE_OUTER_BOUND('',#87,.T.);
#60=FACE_OUTER_BOUND('',#89,.T.);
#61=FACE_OUTER_BOUND('',#91,.T.);
#62=FACE_OUTER_BOUND('',#93,.T.);
#63=FACE_OUTER_BOUND('',#95,.T.);
#64=FACE_OUTER_BOUND('',#97,.T.);
#65=FACE_OUTER_BOUND('',#99,.T.);
#66=FACE_OUTER_BOUND('',#101,.T.);
#67=FACE_OUTER_BOUND('',#103,.T.);
#68=FACE_OUTER_BOUND('',#105,.T.);
#69=FACE_OUTER_BOUND('',#107,.T.);
#70=FACE_OUTER_BOUND('',#109,.T.);
#71=FACE_OUTER_BOUND('',#111,.T.);
#72=FACE_OUTER_BOUND('',#113,.T.);
#73=FACE_OUTER_BOUND('',#115,.T.);
#74=FACE_OUTER_BOUND('',#117,.T.);
#75=FACE_OUTER_BOUND('',#119,.T.);
#76=FACE_OUTER_BOUND('',#121,.T.);
#77=FACE_OUTER_BOUND('',#123,.T.);
#78=FACE_OUTER_BOUND('',#125,.T.);
#79=EDGE_LOOP('',(#199));
#80=EDGE_LOOP('',(#200));
#81=EDGE_LOOP('',(#201));
#82=EDGE_LOOP('',(#202));
#83=EDGE_LOOP('',(#203));
#84=EDGE_LOOP('',(#204));
#85=EDGE_LOOP('',(#205));
#86=EDGE_LOOP('',(#206));
#87=EDGE_LOOP('',(#207));
#88=EDGE_LOOP('',(#208));
#89=EDGE_LOOP('',(#209));
#90=EDGE_LOOP('',(#210));
#91=EDGE_LOOP('',(#211));
#92=EDGE_LOOP('',(#212));
#93=EDGE_LOOP('',(#213));
#94=EDGE_LOOP('',(#214));
#95=EDGE_LOOP('',(#215));
#96=EDGE_LOOP('',(#216));
#97=EDGE_LOOP('',(#217));
#98=EDGE_LOOP('',(#218));
#99=EDGE_LOOP('',(#219));
#100=EDGE_LOOP('',(#220));
#101=EDGE_LOOP('',(#221));
#102=EDGE_LOOP('',(#222));
#103=EDGE_LOOP('',(#223));
#104=EDGE_LOOP('',(#224));
#105=EDGE_LOOP('',(#225));
#106=EDGE_LOOP('',(#226));
#107=EDGE_LOOP('',(#227));
#108=EDGE_LOOP('',(#228));
#109=EDGE_LOOP('',(#229));
#110=EDGE_LOOP('',(#230));
#111=EDGE_LOOP('',(#231));
#112=EDGE_LOOP('',(#232));
#113=EDGE_LOOP('',(#233));
#114=EDGE_LOOP('',(#234));
#115=EDGE_LOOP('',(#235));
#116=EDGE_LOOP('',(#236));
#117=EDGE_LOOP('',(#237));
#118=EDGE_LOOP('',(#238));
#119=EDGE_LOOP('',(#239));
#120=EDGE_LOOP('',(#240));
#121=EDGE_LOOP('',(#241));
#122=EDGE_LOOP('',(#242));
#123=EDGE_LOOP('',(#243));
#124=EDGE_LOOP('',(#244));
#125=EDGE_LOOP('',(#245));
#126=EDGE_LOOP('',(#246));
#127=CIRCLE('',#306,17.5);
#128=CIRCLE('',#307,18.);
#129=CIRCLE('',#309,17.5);
#130=CIRCLE('',#311,22.);
#131=CIRCLE('',#313,14.4);
#132=CIRCLE('',#314,14.2);
#133=CIRCLE('',#316,14.4);
#134=CIRCLE('',#318,14.1);
#135=CIRCLE('',#320,14.4);
#136=CIRCLE('',#321,14.2);
#137=CIRCLE('',#323,14.4);
#138=CIRCLE('',#325,14.1);
#139=CIRCLE('',#327,14.2);
#140=CIRCLE('',#329,14.1);
#141=CIRCLE('',#331,14.2);
#142=CIRCLE('',#333,14.1);
#143=CIRCLE('',#335,13.9);
#144=CIRCLE('',#336,14.1);
#145=CIRCLE('',#338,13.);
#146=CIRCLE('',#341,15.9);
#147=CIRCLE('',#343,14.1);
#148=CIRCLE('',#345,13.);
#149=CIRCLE('',#349,19.460230888048);
#150=CIRCLE('',#351,13.5);
#151=VERTEX_POINT('',#453);
#152=VERTEX_POINT('',#455);
#153=VERTEX_POINT('',#458);
#154=VERTEX_POINT('',#461);
#155=VERTEX_POINT('',#464);
#156=VERTEX_POINT('',#466);
#157=VERTEX_POINT('',#469);
#158=VERTEX_POINT('',#472);
#159=VERTEX_POINT('',#475);
#160=VERTEX_POINT('',#477);
#161=VERTEX_POINT('',#480);
#162=VERTEX_POINT('',#483);
#163=VERTEX_POINT('',#486);
#164=VERTEX_POINT('',#489);
#165=VERTEX_POINT('',#492);
#166=VERTEX_POINT('',#495);
#167=VERTEX_POINT('',#498);
#168=VERTEX_POINT('',#500);
#169=VERTEX_POINT('',#503);
#170=VERTEX_POINT('',#507);
#171=VERTEX_POINT('',#510);
#172=VERTEX_POINT('',#513);
#173=VERTEX_POINT('',#518);
#174=VERTEX_POINT('',#521);
#175=EDGE_CURVE('',#151,#151,#127,.T.);
#176=EDGE_CURVE('',#152,#152,#128,.T.);
#177=EDGE_CURVE('',#153,#153,#129,.T.);
#178=EDGE_CURVE('',#154,#154,#130,.T.);
#179=EDGE_CURVE('',#155,#155,#131,.T.);
#180=EDGE_CURVE('',#156,#156,#132,.T.);
#181=EDGE_CURVE('',#157,#157,#133,.T.);
#182=EDGE_CURVE('',#158,#158,#134,.T.);
#183=EDGE_CURVE('',#159,#159,#135,.T.);
#184=EDGE_CURVE('',#160,#160,#136,.T.);
#185=EDGE_CURVE('',#161,#161,#137,.T.);
#186=EDGE_CURVE('',#162,#162,#138,.T.);
#187=EDGE_CURVE('',#163,#163,#139,.T.);
#188=EDGE_CURVE('',#164,#164,#140,.T.);
#189=EDGE_CURVE('',#165,#165,#141,.T.);
#190=EDGE_CURVE('',#166,#166,#142,.T.);
#191=EDGE_CURVE('',#167,#167,#143,.T.);
#192=EDGE_CURVE('',#168,#168,#144,.T.);
#193=EDGE_CURVE('',#169,#169,#145,.T.);
#194=EDGE_CURVE('',#170,#170,#146,.T.);
#195=EDGE_CURVE('',#171,#171,#147,.T.);
#196=EDGE_CURVE('',#172,#172,#148,.T.);
#197=EDGE_CURVE('',#173,#173,#149,.T.);
#198=EDGE_CURVE('',#174,#174,#150,.T.);
#199=ORIENTED_EDGE('',*,*,#175,.T.);
#200=ORIENTED_EDGE('',*,*,#176,.T.);
#201=ORIENTED_EDGE('',*,*,#177,.F.);
#202=ORIENTED_EDGE('',*,*,#175,.F.);
#203=ORIENTED_EDGE('',*,*,#178,.F.);
#204=ORIENTED_EDGE('',*,*,#176,.F.);
#205=ORIENTED_EDGE('',*,*,#179,.T.);
#206=ORIENTED_EDGE('',*,*,#180,.T.);
#207=ORIENTED_EDGE('',*,*,#181,.F.);
#208=ORIENTED_EDGE('',*,*,#179,.F.);
#209=ORIENTED_EDGE('',*,*,#180,.F.);
#210=ORIENTED_EDGE('',*,*,#182,.F.);
#211=ORIENTED_EDGE('',*,*,#183,.T.);
#212=ORIENTED_EDGE('',*,*,#184,.T.);
#213=ORIENTED_EDGE('',*,*,#185,.F.);
#214=ORIENTED_EDGE('',*,*,#183,.F.);
#215=ORIENTED_EDGE('',*,*,#184,.F.);
#216=ORIENTED_EDGE('',*,*,#186,.F.);
#217=ORIENTED_EDGE('',*,*,#187,.T.);
#218=ORIENTED_EDGE('',*,*,#181,.T.);
#219=ORIENTED_EDGE('',*,*,#187,.F.);
#220=ORIENTED_EDGE('',*,*,#188,.T.);
#221=ORIENTED_EDGE('',*,*,#189,.T.);
#222=ORIENTED_EDGE('',*,*,#185,.T.);
#223=ORIENTED_EDGE('',*,*,#189,.F.);
#224=ORIENTED_EDGE('',*,*,#190,.T.);
#225=ORIENTED_EDGE('',*,*,#191,.T.);
#226=ORIENTED_EDGE('',*,*,#192,.T.);
#227=ORIENTED_EDGE('',*,*,#191,.F.);
#228=ORIENTED_EDGE('',*,*,#193,.T.);
#229=ORIENTED_EDGE('',*,*,#190,.F.);
#230=ORIENTED_EDGE('',*,*,#192,.F.);
#231=ORIENTED_EDGE('',*,*,#194,.T.);
#232=ORIENTED_EDGE('',*,*,#177,.T.);
#233=ORIENTED_EDGE('',*,*,#194,.F.);
#234=ORIENTED_EDGE('',*,*,#195,.T.);
#235=ORIENTED_EDGE('',*,*,#196,.T.);
#236=ORIENTED_EDGE('',*,*,#193,.F.);
#237=ORIENTED_EDGE('',*,*,#186,.T.);
#238=ORIENTED_EDGE('',*,*,#188,.F.);
#239=ORIENTED_EDGE('',*,*,#182,.T.);
#240=ORIENTED_EDGE('',*,*,#195,.F.);
#241=ORIENTED_EDGE('',*,*,#178,.T.);
#242=ORIENTED_EDGE('',*,*,#197,.F.);
#243=ORIENTED_EDGE('',*,*,#197,.T.);
#244=ORIENTED_EDGE('',*,*,#198,.F.);
#245=ORIENTED_EDGE('',*,*,#198,.T.);
#246=ORIENTED_EDGE('',*,*,#196,.F.);
#247=TOROIDAL_SURFACE('',#305,18.,0.5);
#248=TOROIDAL_SURFACE('',#312,14.2,0.2);
#249=TOROIDAL_SURFACE('',#319,14.2,0.2);
#250=TOROIDAL_SURFACE('',#326,14.2,0.2);
#251=TOROIDAL_SURFACE('',#330,14.2,0.2);
#252=TOROIDAL_SURFACE('',#334,13.9,0.2);
#253=TOROIDAL_SURFACE('',#340,15.9,1.6);
#254=STYLED_ITEM('',(#546),#279);
#255=STYLED_ITEM('',(#546),#280);
#256=STYLED_ITEM('',(#546),#281);
#257=STYLED_ITEM('',(#546),#282);
#258=STYLED_ITEM('',(#546),#283);
#259=STYLED_ITEM('',(#546),#284);
#260=STYLED_ITEM('',(#546),#285);
#261=STYLED_ITEM('',(#546),#286);
#262=STYLED_ITEM('',(#546),#287);
#263=STYLED_ITEM('',(#546),#288);
#264=STYLED_ITEM('',(#546),#289);
#265=STYLED_ITEM('',(#546),#290);
#266=STYLED_ITEM('',(#546),#291);
#267=STYLED_ITEM('',(#546),#292);
#268=STYLED_ITEM('',(#546),#293);
#269=STYLED_ITEM('',(#546),#294);
#270=STYLED_ITEM('',(#546),#295);
#271=STYLED_ITEM('',(#546),#296);
#272=STYLED_ITEM('',(#546),#297);
#273=STYLED_ITEM('',(#546),#298);
#274=STYLED_ITEM('',(#546),#299);
#275=STYLED_ITEM('',(#546),#300);
#276=STYLED_ITEM('',(#546),#301);
#277=STYLED_ITEM('',(#546),#302);
#278=STYLED_ITEM('',(#545),#13);
#279=ADVANCED_FACE('',(#55,#31),#247,.F.);
#280=ADVANCED_FACE('',(#56,#32),#24,.T.);
#281=ADVANCED_FACE('',(#57,#33),#16,.T.);
#282=ADVANCED_FACE('',(#58,#34),#248,.F.);
#283=ADVANCED_FACE('',(#59,#35),#25,.F.);
#284=ADVANCED_FACE('',(#60,#36),#17,.T.);
#285=ADVANCED_FACE('',(#61,#37),#249,.F.);
#286=ADVANCED_FACE('',(#62,#38),#26,.F.);
#287=ADVANCED_FACE('',(#63,#39),#18,.T.);
#288=ADVANCED_FACE('',(#64,#40),#250,.F.);
#289=ADVANCED_FACE('',(#65,#41),#19,.T.);
#290=ADVANCED_FACE('',(#66,#42),#251,.F.);
#291=ADVANCED_FACE('',(#67,#43),#20,.T.);
#292=ADVANCED_FACE('',(#68,#44),#252,.F.);
#293=ADVANCED_FACE('',(#69,#45),#21,.T.);
#294=ADVANCED_FACE('',(#70,#46),#27,.F.);
#295=ADVANCED_FACE('',(#71,#47),#253,.T.);
#296=ADVANCED_FACE('',(#72,#48),#22,.T.);
#297=ADVANCED_FACE('',(#73,#49),#28,.F.);
#298=ADVANCED_FACE('',(#74,#50),#29,.F.);
#299=ADVANCED_FACE('',(#75,#51),#30,.F.);
#300=ADVANCED_FACE('',(#76,#52),#14,.T.);
#301=ADVANCED_FACE('',(#77,#53),#15,.T.);
#302=ADVANCED_FACE('',(#78,#54),#23,.T.);
#303=CLOSED_SHELL('',(#279,#280,#281,#282,#283,#284,#285,#286,#287,#288,
#289,#290,#291,#292,#293,#294,#295,#296,#297,#298,#299,#300,#301,#302));
#304=AXIS2_PLACEMENT_3D('placement',#451,#353,#354);
#305=AXIS2_PLACEMENT_3D('',#452,#355,#356);
#306=AXIS2_PLACEMENT_3D('',#454,#357,#358);
#307=AXIS2_PLACEMENT_3D('',#456,#359,#360);
#308=AXIS2_PLACEMENT_3D('',#457,#361,#362);
#309=AXIS2_PLACEMENT_3D('',#459,#363,#364);
#310=AXIS2_PLACEMENT_3D('',#460,#365,#366);
#311=AXIS2_PLACEMENT_3D('',#462,#367,#368);
#312=AXIS2_PLACEMENT_3D('',#463,#369,#370);
#313=AXIS2_PLACEMENT_3D('',#465,#371,#372);
#314=AXIS2_PLACEMENT_3D('',#467,#373,#374);
#315=AXIS2_PLACEMENT_3D('',#468,#375,#376);
#316=AXIS2_PLACEMENT_3D('',#470,#377,#378);
#317=AXIS2_PLACEMENT_3D('',#471,#379,#380);
#318=AXIS2_PLACEMENT_3D('',#473,#381,#382);
#319=AXIS2_PLACEMENT_3D('',#474,#383,#384);
#320=AXIS2_PLACEMENT_3D('',#476,#385,#386);
#321=AXIS2_PLACEMENT_3D('',#478,#387,#388);
#322=AXIS2_PLACEMENT_3D('',#479,#389,#390);
#323=AXIS2_PLACEMENT_3D('',#481,#391,#392);
#324=AXIS2_PLACEMENT_3D('',#482,#393,#394);
#325=AXIS2_PLACEMENT_3D('',#484,#395,#396);
#326=AXIS2_PLACEMENT_3D('',#485,#397,#398);
#327=AXIS2_PLACEMENT_3D('',#487,#399,#400);
#328=AXIS2_PLACEMENT_3D('',#488,#401,#402);
#329=AXIS2_PLACEMENT_3D('',#490,#403,#404);
#330=AXIS2_PLACEMENT_3D('',#491,#405,#406);
#331=AXIS2_PLACEMENT_3D('',#493,#407,#408);
#332=AXIS2_PLACEMENT_3D('',#494,#409,#410);
#333=AXIS2_PLACEMENT_3D('',#496,#411,#412);
#334=AXIS2_PLACEMENT_3D('',#497,#413,#414);
#335=AXIS2_PLACEMENT_3D('',#499,#415,#416);
#336=AXIS2_PLACEMENT_3D('',#501,#417,#418);
#337=AXIS2_PLACEMENT_3D('',#502,#419,#420);
#338=AXIS2_PLACEMENT_3D('',#504,#421,#422);
#339=AXIS2_PLACEMENT_3D('',#505,#423,#424);
#340=AXIS2_PLACEMENT_3D('',#506,#425,#426);
#341=AXIS2_PLACEMENT_3D('',#508,#427,#428);
#342=AXIS2_PLACEMENT_3D('',#509,#429,#430);
#343=AXIS2_PLACEMENT_3D('',#511,#431,#432);
#344=AXIS2_PLACEMENT_3D('',#512,#433,#434);
#345=AXIS2_PLACEMENT_3D('',#514,#435,#436);
#346=AXIS2_PLACEMENT_3D('',#515,#437,#438);
#347=AXIS2_PLACEMENT_3D('',#516,#439,#440);
#348=AXIS2_PLACEMENT_3D('',#517,#441,#442);
#349=AXIS2_PLACEMENT_3D('',#519,#443,#444);
#350=AXIS2_PLACEMENT_3D('',#520,#445,#446);
#351=AXIS2_PLACEMENT_3D('',#522,#447,#448);
#352=AXIS2_PLACEMENT_3D('',#523,#449,#450);
#353=DIRECTION('axis',(0.,0.,1.));
#354=DIRECTION('refdir',(1.,0.,0.));
#355=DIRECTION('center_axis',(1.,0.,0.));
#356=DIRECTION('ref_axis',(0.,0.,-1.));
#357=DIRECTION('center_axis',(1.,0.,0.));
#358=DIRECTION('ref_axis',(0.,-1.,1.83690953073357E-16));
#359=DIRECTION('center_axis',(-1.,0.,0.));
#360=DIRECTION('ref_axis',(0.,-1.,1.83690953073357E-16));
#361=DIRECTION('center_axis',(1.,0.,0.));
#362=DIRECTION('ref_axis',(0.,1.,0.));
#363=DIRECTION('center_axis',(-1.,0.,0.));
#364=DIRECTION('ref_axis',(0.,-1.,1.83690953073357E-16));
#365=DIRECTION('center_axis',(-1.,0.,0.));
#366=DIRECTION('ref_axis',(0.,0.,1.));
#367=DIRECTION('center_axis',(1.,0.,0.));
#368=DIRECTION('ref_axis',(0.,0.,-1.));
#369=DIRECTION('center_axis',(1.,0.,0.));
#370=DIRECTION('ref_axis',(0.,0.,-1.));
#371=DIRECTION('center_axis',(1.,0.,0.));
#372=DIRECTION('ref_axis',(0.,-1.,1.83690953073357E-16));
#373=DIRECTION('center_axis',(-1.,0.,0.));
#374=DIRECTION('ref_axis',(0.,-1.,1.83690953073357E-16));
#375=DIRECTION('center_axis',(1.,0.,0.));
#376=DIRECTION('ref_axis',(0.,1.,0.));
#377=DIRECTION('center_axis',(-1.,0.,0.));
#378=DIRECTION('ref_axis',(0.,-1.,1.83690953073357E-16));
#379=DIRECTION('center_axis',(1.,0.,0.));
#380=DIRECTION('ref_axis',(0.,0.,-1.));
#381=DIRECTION('center_axis',(1.,0.,0.));
#382=DIRECTION('ref_axis',(0.,0.,-1.));
#383=DIRECTION('center_axis',(1.,0.,0.));
#384=DIRECTION('ref_axis',(0.,0.,-1.));
#385=DIRECTION('center_axis',(1.,0.,0.));
#386=DIRECTION('ref_axis',(0.,-1.,1.83690953073357E-16));
#387=DIRECTION('center_axis',(-1.,0.,0.));
#388=DIRECTION('ref_axis',(0.,-1.,1.83690953073357E-16));
#389=DIRECTION('center_axis',(1.,0.,0.));
#390=DIRECTION('ref_axis',(0.,1.,0.));
#391=DIRECTION('center_axis',(-1.,0.,0.));
#392=DIRECTION('ref_axis',(0.,-1.,1.83690953073357E-16));
#393=DIRECTION('center_axis',(1.,0.,0.));
#394=DIRECTION('ref_axis',(0.,0.,-1.));
#395=DIRECTION('center_axis',(1.,0.,0.));
#396=DIRECTION('ref_axis',(0.,0.,-1.));
#397=DIRECTION('center_axis',(1.,0.,0.));
#398=DIRECTION('ref_axis',(0.,0.,-1.));
#399=DIRECTION('center_axis',(1.,0.,0.));
#400=DIRECTION('ref_axis',(0.,-1.,1.83690953073357E-16));
#401=DIRECTION('center_axis',(-1.,0.,0.));
#402=DIRECTION('ref_axis',(0.,0.,1.));
#403=DIRECTION('center_axis',(1.,0.,0.));
#404=DIRECTION('ref_axis',(0.,0.,-1.));
#405=DIRECTION('center_axis',(1.,0.,0.));
#406=DIRECTION('ref_axis',(0.,0.,-1.));
#407=DIRECTION('center_axis',(1.,0.,0.));
#408=DIRECTION('ref_axis',(0.,-1.,1.83690953073357E-16));
#409=DIRECTION('center_axis',(-1.,0.,0.));
#410=DIRECTION('ref_axis',(0.,0.,1.));
#411=DIRECTION('center_axis',(1.,0.,0.));
#412=DIRECTION('ref_axis',(0.,0.,-1.));
#413=DIRECTION('center_axis',(1.,0.,0.));
#414=DIRECTION('ref_axis',(0.,0.,-1.));
#415=DIRECTION('center_axis',(1.,0.,0.));
#416=DIRECTION('ref_axis',(0.,-1.,1.83690953073357E-16));
#417=DIRECTION('center_axis',(-1.,0.,0.));
#418=DIRECTION('ref_axis',(0.,-1.,1.83690953073357E-16));
#419=DIRECTION('center_axis',(-1.,0.,0.));
#420=DIRECTION('ref_axis',(0.,0.,1.));
#421=DIRECTION('center_axis',(1.,0.,0.));
#422=DIRECTION('ref_axis',(0.,0.,-1.));
#423=DIRECTION('center_axis',(1.,0.,0.));
#424=DIRECTION('ref_axis',(0.,1.,0.));
#425=DIRECTION('center_axis',(1.,0.,0.));
#426=DIRECTION('ref_axis',(0.,0.,-1.));
#427=DIRECTION('center_axis',(1.,0.,0.));
#428=DIRECTION('ref_axis',(0.,-1.,1.83690953073357E-16));
#429=DIRECTION('center_axis',(-1.,0.,0.));
#430=DIRECTION('ref_axis',(0.,0.,1.));
#431=DIRECTION('center_axis',(1.,0.,0.));
#432=DIRECTION('ref_axis',(0.,0.,-1.));
#433=DIRECTION('center_axis',(1.,0.,0.));
#434=DIRECTION('ref_axis',(0.,1.,0.));
#435=DIRECTION('center_axis',(1.,0.,0.));
#436=DIRECTION('ref_axis',(0.,0.,-1.));
#437=DIRECTION('center_axis',(1.,0.,0.));
#438=DIRECTION('ref_axis',(0.,1.,0.));
#439=DIRECTION('center_axis',(1.,0.,0.));
#440=DIRECTION('ref_axis',(0.,1.,0.));
#441=DIRECTION('center_axis',(-1.,0.,0.));
#442=DIRECTION('ref_axis',(0.,1.,0.));
#443=DIRECTION('center_axis',(1.,0.,0.));
#444=DIRECTION('ref_axis',(0.,0.,-1.));
#445=DIRECTION('center_axis',(-1.,0.,0.));
#446=DIRECTION('ref_axis',(0.,1.,0.));
#447=DIRECTION('center_axis',(1.,0.,0.));
#448=DIRECTION('ref_axis',(0.,0.,-1.));
#449=DIRECTION('center_axis',(1.,0.,0.));
#450=DIRECTION('ref_axis',(0.,0.,-1.));
#451=CARTESIAN_POINT('',(0.,0.,0.));
#452=CARTESIAN_POINT('Origin',(-10.5,0.,0.));
#453=CARTESIAN_POINT('',(-10.5,17.5,-1.07153055959458E-15));
#454=CARTESIAN_POINT('Origin',(-10.5,0.,0.));
#455=CARTESIAN_POINT('',(-10.,18.,-5.51072859220069E-15));
#456=CARTESIAN_POINT('Origin',(-10.,0.,0.));
#457=CARTESIAN_POINT('Origin',(-16.,0.,0.));
#458=CARTESIAN_POINT('',(-20.4,17.5,-5.3576527979729E-15));
#459=CARTESIAN_POINT('Origin',(-20.4,0.,0.));
#460=CARTESIAN_POINT('Origin',(-10.,22.,0.));
#461=CARTESIAN_POINT('',(-10.,22.,0.));
#462=CARTESIAN_POINT('Origin',(-10.,0.,0.));
#463=CARTESIAN_POINT('Origin',(-18.8,0.,0.));
#464=CARTESIAN_POINT('',(-18.8,14.4,-8.81716574752112E-16));
#465=CARTESIAN_POINT('Origin',(-18.8,0.,0.));
#466=CARTESIAN_POINT('',(-19.,14.2,-4.34735255606944E-15));
#467=CARTESIAN_POINT('Origin',(-19.,0.,0.));
#468=CARTESIAN_POINT('Origin',(-17.5,0.,0.));
#469=CARTESIAN_POINT('',(-16.2,14.4,-4.40858287376056E-15));
#470=CARTESIAN_POINT('Origin',(-16.2,0.,0.));
#471=CARTESIAN_POINT('Origin',(-19.,14.1,0.));
#472=CARTESIAN_POINT('',(-19.,14.1,0.));
#473=CARTESIAN_POINT('Origin',(-19.,0.,0.));
#474=CARTESIAN_POINT('Origin',(-12.8,0.,0.));
#475=CARTESIAN_POINT('',(-12.8,14.4,-8.81716574752111E-16));
#476=CARTESIAN_POINT('Origin',(-12.8,0.,0.));
#477=CARTESIAN_POINT('',(-13.,14.2,-4.34735255606944E-15));
#478=CARTESIAN_POINT('Origin',(-13.,0.,0.));
#479=CARTESIAN_POINT('Origin',(-11.5,0.,0.));
#480=CARTESIAN_POINT('',(-10.2,14.4,-4.40858287376056E-15));
#481=CARTESIAN_POINT('Origin',(-10.2,0.,0.));
#482=CARTESIAN_POINT('Origin',(-13.,14.1,0.));
#483=CARTESIAN_POINT('',(-13.,14.1,0.));
#484=CARTESIAN_POINT('Origin',(-13.,0.,0.));
#485=CARTESIAN_POINT('Origin',(-16.2,0.,0.));
#486=CARTESIAN_POINT('',(-16.,14.2,-8.69470511213888E-16));
#487=CARTESIAN_POINT('Origin',(-16.,0.,0.));
#488=CARTESIAN_POINT('Origin',(-16.,14.4,0.));
#489=CARTESIAN_POINT('',(-16.,14.1,0.));
#490=CARTESIAN_POINT('Origin',(-16.,0.,0.));
#491=CARTESIAN_POINT('Origin',(-10.2,0.,0.));
#492=CARTESIAN_POINT('',(-10.,14.2,-8.69470511213888E-16));
#493=CARTESIAN_POINT('Origin',(-10.,0.,0.));
#494=CARTESIAN_POINT('Origin',(-10.,14.4,0.));
#495=CARTESIAN_POINT('',(-10.,14.1,0.));
#496=CARTESIAN_POINT('Origin',(-10.,0.,0.));
#497=CARTESIAN_POINT('Origin',(-7.2,0.,0.));
#498=CARTESIAN_POINT('',(-7.,13.9,-8.51101415906551E-16));
#499=CARTESIAN_POINT('Origin',(-7.,0.,0.));
#500=CARTESIAN_POINT('',(-7.2,14.1,-4.31673739722388E-15));
#501=CARTESIAN_POINT('Origin',(-7.2,0.,0.));
#502=CARTESIAN_POINT('Origin',(-7.,14.1,0.));
#503=CARTESIAN_POINT('',(-7.,13.,0.));
#504=CARTESIAN_POINT('Origin',(-7.,0.,0.));
#505=CARTESIAN_POINT('Origin',(-8.5,0.,0.));
#506=CARTESIAN_POINT('Origin',(-20.4,0.,0.));
#507=CARTESIAN_POINT('',(-22.,15.9,-9.73562051288789E-16));
#508=CARTESIAN_POINT('Origin',(-22.,0.,0.));
#509=CARTESIAN_POINT('Origin',(-22.,17.5,0.));
#510=CARTESIAN_POINT('',(-22.,14.1,0.));
#511=CARTESIAN_POINT('Origin',(-22.,0.,0.));
#512=CARTESIAN_POINT('Origin',(-3.5,0.,0.));
#513=CARTESIAN_POINT('',(0.,13.,0.));
#514=CARTESIAN_POINT('Origin',(0.,0.,0.));
#515=CARTESIAN_POINT('Origin',(-14.5,0.,0.));
#516=CARTESIAN_POINT('Origin',(-20.5,0.,0.));
#517=CARTESIAN_POINT('Origin',(-5.26072631735063,0.,0.));
#518=CARTESIAN_POINT('',(-0.521452634701255,19.460230888048,0.));
#519=CARTESIAN_POINT('Origin',(-0.521452634701255,0.,0.));
#520=CARTESIAN_POINT('Origin',(-0.260726317350628,0.,0.));
#521=CARTESIAN_POINT('',(0.,13.5,0.));
#522=CARTESIAN_POINT('Origin',(0.,0.,0.));
#523=CARTESIAN_POINT('Origin',(0.,13.,0.));
#524=UNCERTAINTY_MEASURE_WITH_UNIT(LENGTH_MEASURE(0.01),#528,
'DISTANCE_ACCURACY_VALUE',
'Maximum model space distance between geometric entities at asserted c
onnectivities');
#525=UNCERTAINTY_MEASURE_WITH_UNIT(LENGTH_MEASURE(1.E-6),#528,
'DISTANCE_ACCURACY_VALUE',
'Maximum model space distance between geometric entities at asserted c
onnectivities');
#526=(
GEOMETRIC_REPRESENTATION_CONTEXT(3)
GLOBAL_UNCERTAINTY_ASSIGNED_CONTEXT((#524))
GLOBAL_UNIT_ASSIGNED_CONTEXT((#528,#531,#529))
REPRESENTATION_CONTEXT('','3D')
);
#527=(
GEOMETRIC_REPRESENTATION_CONTEXT(3)
GLOBAL_UNCERTAINTY_ASSIGNED_CONTEXT((#525))
GLOBAL_UNIT_ASSIGNED_CONTEXT((#528,#531,#529))
REPRESENTATION_CONTEXT('','3D')
);
#528=(
LENGTH_UNIT()
NAMED_UNIT(*)
SI_UNIT(.MILLI.,.METRE.)
);
#529=(
NAMED_UNIT(*)
SI_UNIT($,.STERADIAN.)
SOLID_ANGLE_UNIT()
);
#530=DIMENSIONAL_EXPONENTS(0.,0.,0.,0.,0.,0.,0.);
#531=(
CONVERSION_BASED_UNIT('degree',#533)
NAMED_UNIT(#530)
PLANE_ANGLE_UNIT()
);
#532=(
NAMED_UNIT(*)
PLANE_ANGLE_UNIT()
SI_UNIT($,.RADIAN.)
);
#533=PLANE_ANGLE_MEASURE_WITH_UNIT(PLANE_ANGLE_MEASURE(0.01745329252),#532);
#534=SHAPE_DEFINITION_REPRESENTATION(#535,#536);
#535=PRODUCT_DEFINITION_SHAPE('',$,#538);
#536=SHAPE_REPRESENTATION('',(#304),#526);
#537=DESIGN_CONTEXT('part definition',#542,'design');
#538=PRODUCT_DEFINITION('20114025000','20114025000',#539,#537);
#539=PRODUCT_DEFINITION_FORMATION('',$,#544);
#540=PRODUCT_RELATED_PRODUCT_CATEGORY('20114025000','20114025000',(#544));
#541=APPLICATION_PROTOCOL_DEFINITION('international standard',
'ap203_configuration_controlled_3d_design_of_mechanical_parts_and_asse
mblies_mim_lf',2004,#542);
#542=APPLICATION_CONTEXT(
'Configuration Controlled 3D Design of Mechanical Parts and Assemblies');
#543=MECHANICAL_CONTEXT('part definition',#542,'mechanical');
#544=PRODUCT('20114025000','20114025000',$,(#543));
#545=PRESENTATION_STYLE_ASSIGNMENT((#547));
#546=PRESENTATION_STYLE_ASSIGNMENT((#548));
#547=SURFACE_STYLE_USAGE(.BOTH.,#549);
#548=SURFACE_STYLE_USAGE(.BOTH.,#550);
#549=SURFACE_SIDE_STYLE($,(#551));
#550=SURFACE_SIDE_STYLE($,(#552));
#551=SURFACE_STYLE_FILL_AREA(#553);
#552=SURFACE_STYLE_FILL_AREA(#554);
#553=FILL_AREA_STYLE($,(#555));
#554=FILL_AREA_STYLE($,(#556));
#555=FILL_AREA_STYLE_COLOUR($,#557);
#556=FILL_AREA_STYLE_COLOUR($,#558);
#557=COLOUR_RGB('',0.745098039215686,0.737254901960784,0.729411764705882);
#558=COLOUR_RGB('',0.745098039215686,0.737254901960784,0.729411764705882);
ENDSEC;
END-ISO-10303-21;
