ISO-10303-21;
HEADER;
/* Generated by software containing ST-Developer
 * from STEP Tools, Inc. (www.steptools.com) 
 */

FILE_DESCRIPTION(
/* description */ ('Z\X\E1vitov\X\E9 hrdlo ZH zaslepovac\X\ED - dle DI
N'),
/* implementation_level */ '2;1');

FILE_NAME(
/* name */ 
'C:\\Vault_Workspace\\DATA\\Katalog Bupospol\\2 Potrubn\X\ED d\X\EDly\\
2.0 \X2\0160\X0\rouben\X\ED\\20200\\20200\\20200065000.stp',
/* time_stamp */ '2016-01-11T08:58:26+01:00',
/* author */ ('Struska'),
/* organization */ ('Bupospol'),
/* preprocessor_version */ 'ST-DEVELOPER v15.6',
/* originating_system */ 'Autodesk Inventor 2015',
/* authorisation */ '');

FILE_SCHEMA (('CONFIG_CONTROL_DESIGN'));
ENDSEC;

DATA;
#10=MECHANICAL_DESIGN_GEOMETRIC_PRESENTATION_REPRESENTATION('',(#215,#212,
#211,#219,#213,#218,#217,#214,#216,#206,#210,#209,#208,#207,#221,#223,#222,
#220),#412);
#11=SHAPE_REPRESENTATION_RELATIONSHIP('SRR','None',#421,#12);
#12=ADVANCED_BREP_SHAPE_REPRESENTATION($,(#13),#411);
#13=MANIFOLD_SOLID_BREP('T\X2\011B\X0\leso1',#241);
#14=CONICAL_SURFACE('',#256,41.475,15.0428007460538);
#15=CONICAL_SURFACE('',#268,40.75,80.);
#16=CONICAL_SURFACE('',#270,46.425,45.);
#17=CONICAL_SURFACE('',#274,46.425,45.);
#18=FACE_BOUND('',#70,.T.);
#19=FACE_BOUND('',#72,.T.);
#20=FACE_BOUND('',#74,.T.);
#21=FACE_BOUND('',#76,.T.);
#22=FACE_BOUND('',#78,.T.);
#23=FACE_BOUND('',#80,.T.);
#24=FACE_BOUND('',#84,.T.);
#25=FACE_BOUND('',#86,.T.);
#26=FACE_BOUND('',#88,.T.);
#27=FACE_BOUND('',#90,.T.);
#28=FACE_BOUND('',#92,.T.);
#29=CYLINDRICAL_SURFACE('',#249,15.);
#30=CYLINDRICAL_SURFACE('',#258,40.4);
#31=CYLINDRICAL_SURFACE('',#262,35.5);
#32=CYLINDRICAL_SURFACE('',#272,47.5);
#33=CIRCLE('',#245,15.);
#34=CIRCLE('',#247,15.);
#35=CIRCLE('',#250,15.);
#36=CIRCLE('',#251,15.);
#37=CIRCLE('',#252,15.);
#38=CIRCLE('',#254,45.35);
#39=CIRCLE('',#255,42.55);
#40=CIRCLE('',#257,40.4);
#41=CIRCLE('',#259,40.4);
#42=CIRCLE('',#261,35.5);
#43=CIRCLE('',#263,35.5);
#44=CIRCLE('',#267,36.15);
#45=CIRCLE('',#269,45.35);
#46=CIRCLE('',#271,47.5);
#47=CIRCLE('',#273,47.5);
#48=FACE_OUTER_BOUND('',#65,.T.);
#49=FACE_OUTER_BOUND('',#66,.T.);
#50=FACE_OUTER_BOUND('',#67,.T.);
#51=FACE_OUTER_BOUND('',#68,.T.);
#52=FACE_OUTER_BOUND('',#69,.T.);
#53=FACE_OUTER_BOUND('',#71,.T.);
#54=FACE_OUTER_BOUND('',#73,.T.);
#55=FACE_OUTER_BOUND('',#75,.T.);
#56=FACE_OUTER_BOUND('',#77,.T.);
#57=FACE_OUTER_BOUND('',#79,.T.);
#58=FACE_OUTER_BOUND('',#81,.T.);
#59=FACE_OUTER_BOUND('',#82,.T.);
#60=FACE_OUTER_BOUND('',#83,.T.);
#61=FACE_OUTER_BOUND('',#85,.T.);
#62=FACE_OUTER_BOUND('',#87,.T.);
#63=FACE_OUTER_BOUND('',#89,.T.);
#64=FACE_OUTER_BOUND('',#91,.T.);
#65=EDGE_LOOP('',(#151,#152,#153,#154));
#66=EDGE_LOOP('',(#155,#156));
#67=EDGE_LOOP('',(#157,#158));
#68=EDGE_LOOP('',(#159,#160,#161,#162));
#69=EDGE_LOOP('',(#163));
#70=EDGE_LOOP('',(#164,#165,#166,#167,#168,#169,#170,#171));
#71=EDGE_LOOP('',(#172));
#72=EDGE_LOOP('',(#173));
#73=EDGE_LOOP('',(#174));
#74=EDGE_LOOP('',(#175));
#75=EDGE_LOOP('',(#176));
#76=EDGE_LOOP('',(#177));
#77=EDGE_LOOP('',(#178));
#78=EDGE_LOOP('',(#179));
#79=EDGE_LOOP('',(#180));
#80=EDGE_LOOP('',(#181));
#81=EDGE_LOOP('',(#182));
#82=EDGE_LOOP('',(#183,#184,#185,#186));
#83=EDGE_LOOP('',(#187));
#84=EDGE_LOOP('',(#188));
#85=EDGE_LOOP('',(#189));
#86=EDGE_LOOP('',(#190));
#87=EDGE_LOOP('',(#191));
#88=EDGE_LOOP('',(#192));
#89=EDGE_LOOP('',(#193));
#90=EDGE_LOOP('',(#194));
#91=EDGE_LOOP('',(#195));
#92=EDGE_LOOP('',(#196));
#93=LINE('',#353,#101);
#94=LINE('',#355,#102);
#95=LINE('',#357,#103);
#96=LINE('',#358,#104);
#97=LINE('',#363,#105);
#98=LINE('',#368,#106);
#99=LINE('',#370,#107);
#100=LINE('',#371,#108);
#101=VECTOR('',#279,9.);
#102=VECTOR('',#280,18.);
#103=VECTOR('',#281,9.);
#104=VECTOR('',#282,18.);
#105=VECTOR('',#287,18.);
#106=VECTOR('',#294,9.);
#107=VECTOR('',#295,18.);
#108=VECTOR('',#296,9.);
#109=VERTEX_POINT('',#351);
#110=VERTEX_POINT('',#352);
#111=VERTEX_POINT('',#354);
#112=VERTEX_POINT('',#356);
#113=VERTEX_POINT('',#360);
#114=VERTEX_POINT('',#361);
#115=VERTEX_POINT('',#367);
#116=VERTEX_POINT('',#369);
#117=VERTEX_POINT('',#373);
#118=VERTEX_POINT('',#378);
#119=VERTEX_POINT('',#380);
#120=VERTEX_POINT('',#383);
#121=VERTEX_POINT('',#386);
#122=VERTEX_POINT('',#389);
#123=VERTEX_POINT('',#392);
#124=VERTEX_POINT('',#397);
#125=VERTEX_POINT('',#400);
#126=VERTEX_POINT('',#403);
#127=VERTEX_POINT('',#406);
#128=EDGE_CURVE('',#109,#110,#93,.T.);
#129=EDGE_CURVE('',#111,#109,#94,.T.);
#130=EDGE_CURVE('',#112,#111,#95,.T.);
#131=EDGE_CURVE('',#112,#110,#96,.T.);
#132=EDGE_CURVE('',#113,#114,#33,.T.);
#133=EDGE_CURVE('',#114,#113,#97,.T.);
#134=EDGE_CURVE('',#110,#112,#34,.T.);
#135=EDGE_CURVE('',#115,#113,#98,.T.);
#136=EDGE_CURVE('',#116,#115,#99,.T.);
#137=EDGE_CURVE('',#114,#116,#100,.T.);
#138=EDGE_CURVE('',#117,#117,#35,.T.);
#139=EDGE_CURVE('',#111,#115,#36,.T.);
#140=EDGE_CURVE('',#116,#109,#37,.T.);
#141=EDGE_CURVE('',#118,#118,#38,.T.);
#142=EDGE_CURVE('',#119,#119,#39,.T.);
#143=EDGE_CURVE('',#120,#120,#40,.T.);
#144=EDGE_CURVE('',#121,#121,#41,.T.);
#145=EDGE_CURVE('',#122,#122,#42,.T.);
#146=EDGE_CURVE('',#123,#123,#43,.T.);
#147=EDGE_CURVE('',#124,#124,#44,.T.);
#148=EDGE_CURVE('',#125,#125,#45,.T.);
#149=EDGE_CURVE('',#126,#126,#46,.T.);
#150=EDGE_CURVE('',#127,#127,#47,.T.);
#151=ORIENTED_EDGE('',*,*,#128,.F.);
#152=ORIENTED_EDGE('',*,*,#129,.F.);
#153=ORIENTED_EDGE('',*,*,#130,.F.);
#154=ORIENTED_EDGE('',*,*,#131,.T.);
#155=ORIENTED_EDGE('',*,*,#132,.F.);
#156=ORIENTED_EDGE('',*,*,#133,.F.);
#157=ORIENTED_EDGE('',*,*,#134,.F.);
#158=ORIENTED_EDGE('',*,*,#131,.F.);
#159=ORIENTED_EDGE('',*,*,#135,.F.);
#160=ORIENTED_EDGE('',*,*,#136,.F.);
#161=ORIENTED_EDGE('',*,*,#137,.F.);
#162=ORIENTED_EDGE('',*,*,#133,.T.);
#163=ORIENTED_EDGE('',*,*,#138,.F.);
#164=ORIENTED_EDGE('',*,*,#128,.T.);
#165=ORIENTED_EDGE('',*,*,#134,.T.);
#166=ORIENTED_EDGE('',*,*,#130,.T.);
#167=ORIENTED_EDGE('',*,*,#139,.T.);
#168=ORIENTED_EDGE('',*,*,#135,.T.);
#169=ORIENTED_EDGE('',*,*,#132,.T.);
#170=ORIENTED_EDGE('',*,*,#137,.T.);
#171=ORIENTED_EDGE('',*,*,#140,.T.);
#172=ORIENTED_EDGE('',*,*,#141,.T.);
#173=ORIENTED_EDGE('',*,*,#142,.F.);
#174=ORIENTED_EDGE('',*,*,#142,.T.);
#175=ORIENTED_EDGE('',*,*,#143,.F.);
#176=ORIENTED_EDGE('',*,*,#143,.T.);
#177=ORIENTED_EDGE('',*,*,#144,.F.);
#178=ORIENTED_EDGE('',*,*,#144,.T.);
#179=ORIENTED_EDGE('',*,*,#145,.F.);
#180=ORIENTED_EDGE('',*,*,#145,.T.);
#181=ORIENTED_EDGE('',*,*,#146,.F.);
#182=ORIENTED_EDGE('',*,*,#146,.T.);
#183=ORIENTED_EDGE('',*,*,#129,.T.);
#184=ORIENTED_EDGE('',*,*,#140,.F.);
#185=ORIENTED_EDGE('',*,*,#136,.T.);
#186=ORIENTED_EDGE('',*,*,#139,.F.);
#187=ORIENTED_EDGE('',*,*,#147,.F.);
#188=ORIENTED_EDGE('',*,*,#138,.T.);
#189=ORIENTED_EDGE('',*,*,#147,.T.);
#190=ORIENTED_EDGE('',*,*,#148,.F.);
#191=ORIENTED_EDGE('',*,*,#148,.T.);
#192=ORIENTED_EDGE('',*,*,#149,.F.);
#193=ORIENTED_EDGE('',*,*,#149,.T.);
#194=ORIENTED_EDGE('',*,*,#150,.F.);
#195=ORIENTED_EDGE('',*,*,#150,.T.);
#196=ORIENTED_EDGE('',*,*,#141,.F.);
#197=PLANE('',#243);
#198=PLANE('',#244);
#199=PLANE('',#246);
#200=PLANE('',#248);
#201=PLANE('',#253);
#202=PLANE('',#260);
#203=PLANE('',#264);
#204=PLANE('',#265);
#205=PLANE('',#266);
#206=STYLED_ITEM('',(#430),#224);
#207=STYLED_ITEM('',(#430),#225);
#208=STYLED_ITEM('',(#430),#226);
#209=STYLED_ITEM('',(#430),#227);
#210=STYLED_ITEM('',(#430),#228);
#211=STYLED_ITEM('',(#430),#229);
#212=STYLED_ITEM('',(#430),#230);
#213=STYLED_ITEM('',(#430),#231);
#214=STYLED_ITEM('',(#430),#232);
#215=STYLED_ITEM('',(#430),#233);
#216=STYLED_ITEM('',(#430),#234);
#217=STYLED_ITEM('',(#430),#235);
#218=STYLED_ITEM('',(#430),#236);
#219=STYLED_ITEM('',(#430),#237);
#220=STYLED_ITEM('',(#430),#238);
#221=STYLED_ITEM('',(#430),#239);
#222=STYLED_ITEM('',(#430),#240);
#223=STYLED_ITEM('',(#430),#13);
#224=ADVANCED_FACE('',(#48),#197,.T.);
#225=ADVANCED_FACE('',(#49),#198,.F.);
#226=ADVANCED_FACE('',(#50),#199,.F.);
#227=ADVANCED_FACE('',(#51),#200,.T.);
#228=ADVANCED_FACE('',(#52,#18),#29,.T.);
#229=ADVANCED_FACE('',(#53,#19),#201,.T.);
#230=ADVANCED_FACE('',(#54,#20),#14,.F.);
#231=ADVANCED_FACE('',(#55,#21),#30,.F.);
#232=ADVANCED_FACE('',(#56,#22),#202,.T.);
#233=ADVANCED_FACE('',(#57,#23),#31,.T.);
#234=ADVANCED_FACE('',(#58),#203,.T.);
#235=ADVANCED_FACE('',(#59),#204,.T.);
#236=ADVANCED_FACE('',(#60,#24),#205,.T.);
#237=ADVANCED_FACE('',(#61,#25),#15,.T.);
#238=ADVANCED_FACE('',(#62,#26),#16,.T.);
#239=ADVANCED_FACE('',(#63,#27),#32,.T.);
#240=ADVANCED_FACE('',(#64,#28),#17,.T.);
#241=CLOSED_SHELL('',(#224,#225,#226,#227,#228,#229,#230,#231,#232,#233,
#234,#235,#236,#237,#238,#239,#240));
#242=AXIS2_PLACEMENT_3D('placement',#349,#275,#276);
#243=AXIS2_PLACEMENT_3D('',#350,#277,#278);
#244=AXIS2_PLACEMENT_3D('',#359,#283,#284);
#245=AXIS2_PLACEMENT_3D('',#362,#285,#286);
#246=AXIS2_PLACEMENT_3D('',#364,#288,#289);
#247=AXIS2_PLACEMENT_3D('',#365,#290,#291);
#248=AXIS2_PLACEMENT_3D('',#366,#292,#293);
#249=AXIS2_PLACEMENT_3D('',#372,#297,#298);
#250=AXIS2_PLACEMENT_3D('',#374,#299,#300);
#251=AXIS2_PLACEMENT_3D('',#375,#301,#302);
#252=AXIS2_PLACEMENT_3D('',#376,#303,#304);
#253=AXIS2_PLACEMENT_3D('',#377,#305,#306);
#254=AXIS2_PLACEMENT_3D('',#379,#307,#308);
#255=AXIS2_PLACEMENT_3D('',#381,#309,#310);
#256=AXIS2_PLACEMENT_3D('',#382,#311,#312);
#257=AXIS2_PLACEMENT_3D('',#384,#313,#314);
#258=AXIS2_PLACEMENT_3D('',#385,#315,#316);
#259=AXIS2_PLACEMENT_3D('',#387,#317,#318);
#260=AXIS2_PLACEMENT_3D('',#388,#319,#320);
#261=AXIS2_PLACEMENT_3D('',#390,#321,#322);
#262=AXIS2_PLACEMENT_3D('',#391,#323,#324);
#263=AXIS2_PLACEMENT_3D('',#393,#325,#326);
#264=AXIS2_PLACEMENT_3D('',#394,#327,#328);
#265=AXIS2_PLACEMENT_3D('',#395,#329,#330);
#266=AXIS2_PLACEMENT_3D('',#396,#331,#332);
#267=AXIS2_PLACEMENT_3D('',#398,#333,#334);
#268=AXIS2_PLACEMENT_3D('',#399,#335,#336);
#269=AXIS2_PLACEMENT_3D('',#401,#337,#338);
#270=AXIS2_PLACEMENT_3D('',#402,#339,#340);
#271=AXIS2_PLACEMENT_3D('',#404,#341,#342);
#272=AXIS2_PLACEMENT_3D('',#405,#343,#344);
#273=AXIS2_PLACEMENT_3D('',#407,#345,#346);
#274=AXIS2_PLACEMENT_3D('',#408,#347,#348);
#275=DIRECTION('axis',(0.,0.,1.));
#276=DIRECTION('refdir',(1.,0.,0.));
#277=DIRECTION('center_axis',(0.,0.,1.));
#278=DIRECTION('ref_axis',(0.,-1.,0.));
#279=DIRECTION('',(1.,1.29422492262822E-32,0.));
#280=DIRECTION('',(-1.29422492262822E-32,1.,0.));
#281=DIRECTION('',(-1.,-1.29422492262822E-32,0.));
#282=DIRECTION('',(0.,1.,0.));
#283=DIRECTION('center_axis',(1.,0.,0.));
#284=DIRECTION('ref_axis',(0.,0.,-1.));
#285=DIRECTION('center_axis',(1.,0.,0.));
#286=DIRECTION('ref_axis',(0.,1.,0.));
#287=DIRECTION('',(0.,-1.,0.));
#288=DIRECTION('center_axis',(1.,0.,0.));
#289=DIRECTION('ref_axis',(0.,0.,-1.));
#290=DIRECTION('center_axis',(1.,0.,0.));
#291=DIRECTION('ref_axis',(0.,1.,0.));
#292=DIRECTION('center_axis',(0.,0.,-1.));
#293=DIRECTION('ref_axis',(0.,1.,0.));
#294=DIRECTION('',(1.,1.29422492262822E-32,0.));
#295=DIRECTION('',(1.29422492262822E-32,-1.,0.));
#296=DIRECTION('',(-1.,-1.29422492262822E-32,0.));
#297=DIRECTION('center_axis',(1.,1.29422492262822E-32,0.));
#298=DIRECTION('ref_axis',(0.,1.,0.));
#299=DIRECTION('center_axis',(1.,1.29422492262822E-32,0.));
#300=DIRECTION('ref_axis',(0.,0.,-1.));
#301=DIRECTION('center_axis',(1.,1.29422492262822E-32,0.));
#302=DIRECTION('ref_axis',(0.,0.,-1.));
#303=DIRECTION('center_axis',(1.,1.29422492262822E-32,0.));
#304=DIRECTION('ref_axis',(0.,0.,-1.));
#305=DIRECTION('center_axis',(1.,1.29422492262822E-32,0.));
#306=DIRECTION('ref_axis',(0.,0.,-1.));
#307=DIRECTION('center_axis',(1.,1.29422492262822E-32,0.));
#308=DIRECTION('ref_axis',(0.,0.,-1.));
#309=DIRECTION('center_axis',(1.,1.29422492262822E-32,0.));
#310=DIRECTION('ref_axis',(0.,0.,-1.));
#311=DIRECTION('center_axis',(1.,1.29422492262822E-32,0.));
#312=DIRECTION('ref_axis',(0.,1.,0.));
#313=DIRECTION('center_axis',(1.,1.29422492262822E-32,0.));
#314=DIRECTION('ref_axis',(0.,0.,-1.));
#315=DIRECTION('center_axis',(1.,1.29422492262822E-32,0.));
#316=DIRECTION('ref_axis',(0.,1.,0.));
#317=DIRECTION('center_axis',(1.,1.29422492262822E-32,0.));
#318=DIRECTION('ref_axis',(0.,0.,-1.));
#319=DIRECTION('center_axis',(1.,1.29422492262822E-32,0.));
#320=DIRECTION('ref_axis',(0.,0.,-1.));
#321=DIRECTION('center_axis',(1.,1.29422492262822E-32,0.));
#322=DIRECTION('ref_axis',(0.,0.,-1.));
#323=DIRECTION('center_axis',(1.,1.29422492262822E-32,0.));
#324=DIRECTION('ref_axis',(0.,1.,0.));
#325=DIRECTION('center_axis',(1.,1.29422492262822E-32,0.));
#326=DIRECTION('ref_axis',(0.,0.,-1.));
#327=DIRECTION('center_axis',(1.,1.29422492262822E-32,0.));
#328=DIRECTION('ref_axis',(0.,0.,-1.));
#329=DIRECTION('center_axis',(-1.,-1.29422492262822E-32,0.));
#330=DIRECTION('ref_axis',(0.,0.,1.));
#331=DIRECTION('center_axis',(-1.,-1.29422492262822E-32,0.));
#332=DIRECTION('ref_axis',(0.,0.,1.));
#333=DIRECTION('center_axis',(1.,1.29422492262822E-32,0.));
#334=DIRECTION('ref_axis',(0.,0.,-1.));
#335=DIRECTION('center_axis',(1.,1.29422492262822E-32,0.));
#336=DIRECTION('ref_axis',(0.,1.,0.));
#337=DIRECTION('center_axis',(1.,1.29422492262822E-32,0.));
#338=DIRECTION('ref_axis',(0.,0.,-1.));
#339=DIRECTION('center_axis',(1.,1.29422492262822E-32,0.));
#340=DIRECTION('ref_axis',(0.,1.,0.));
#341=DIRECTION('center_axis',(1.,1.29422492262822E-32,0.));
#342=DIRECTION('ref_axis',(0.,0.,-1.));
#343=DIRECTION('center_axis',(1.,1.29422492262822E-32,0.));
#344=DIRECTION('ref_axis',(0.,1.,0.));
#345=DIRECTION('center_axis',(1.,1.29422492262822E-32,0.));
#346=DIRECTION('ref_axis',(0.,0.,-1.));
#347=DIRECTION('center_axis',(-1.,-1.29422492262822E-32,0.));
#348=DIRECTION('ref_axis',(0.,1.,0.));
#349=CARTESIAN_POINT('',(0.,0.,0.));
#350=CARTESIAN_POINT('Origin',(-28.,15.,12.));
#351=CARTESIAN_POINT('',(-28.,9.,12.));
#352=CARTESIAN_POINT('',(-19.,9.,12.));
#353=CARTESIAN_POINT('',(-23.,9.,12.));
#354=CARTESIAN_POINT('',(-28.,-9.,12.));
#355=CARTESIAN_POINT('',(-28.,15.,12.));
#356=CARTESIAN_POINT('',(-19.,-9.,12.));
#357=CARTESIAN_POINT('',(-23.,-9.,12.));
#358=CARTESIAN_POINT('',(-19.,7.5,12.));
#359=CARTESIAN_POINT('Origin',(-19.,0.,2.22044604925031E-15));
#360=CARTESIAN_POINT('',(-19.,-9.,-12.));
#361=CARTESIAN_POINT('',(-19.,9.,-12.));
#362=CARTESIAN_POINT('Origin',(-19.,1.1648024303654E-31,0.));
#363=CARTESIAN_POINT('',(-19.,-7.5,-12.));
#364=CARTESIAN_POINT('Origin',(-19.,0.,2.22044604925031E-15));
#365=CARTESIAN_POINT('Origin',(-19.,1.1648024303654E-31,0.));
#366=CARTESIAN_POINT('Origin',(-28.,-15.,-12.));
#367=CARTESIAN_POINT('',(-28.,-9.,-12.));
#368=CARTESIAN_POINT('',(-23.,-9.,-12.));
#369=CARTESIAN_POINT('',(-28.,9.,-12.));
#370=CARTESIAN_POINT('',(-28.,2.51252722552804E-63,-12.));
#371=CARTESIAN_POINT('',(-23.,9.,-12.));
#372=CARTESIAN_POINT('Origin',(-23.,6.47112461314111E-32,0.));
#373=CARTESIAN_POINT('',(-18.,15.,0.));
#374=CARTESIAN_POINT('Origin',(-18.,1.29422492262822E-31,0.));
#375=CARTESIAN_POINT('Origin',(-28.,-5.47382212626882E-47,0.));
#376=CARTESIAN_POINT('Origin',(-28.,-5.47382212626882E-47,0.));
#377=CARTESIAN_POINT('Origin',(0.,42.55,0.));
#378=CARTESIAN_POINT('',(0.,45.35,0.));
#379=CARTESIAN_POINT('Origin',(0.,3.62382978335902E-31,0.));
#380=CARTESIAN_POINT('',(0.,42.55,0.));
#381=CARTESIAN_POINT('Origin',(0.,3.62382978335902E-31,0.));
#382=CARTESIAN_POINT('Origin',(-4.,3.10613981430773E-31,0.));
#383=CARTESIAN_POINT('',(-8.,40.4,0.));
#384=CARTESIAN_POINT('Origin',(-8.,2.58844984525644E-31,0.));
#385=CARTESIAN_POINT('Origin',(-9.75,2.3619604837965E-31,0.));
#386=CARTESIAN_POINT('',(-11.5,40.4,0.));
#387=CARTESIAN_POINT('Origin',(-11.5,2.13547112233657E-31,0.));
#388=CARTESIAN_POINT('Origin',(-11.5,35.5,0.));
#389=CARTESIAN_POINT('',(-11.5,35.5,0.));
#390=CARTESIAN_POINT('Origin',(-11.5,2.13547112233657E-31,0.));
#391=CARTESIAN_POINT('Origin',(-9.75000000000001,2.3619604837965E-31,0.));
#392=CARTESIAN_POINT('',(-8.00000000000001,35.5,0.));
#393=CARTESIAN_POINT('Origin',(-8.00000000000001,2.58844984525644E-31,0.));
#394=CARTESIAN_POINT('Origin',(-7.99999999999999,2.58844984525644E-31,0.));
#395=CARTESIAN_POINT('Origin',(-28.,15.,0.));
#396=CARTESIAN_POINT('Origin',(-18.,36.15,0.));
#397=CARTESIAN_POINT('',(-18.,36.15,0.));
#398=CARTESIAN_POINT('Origin',(-18.,1.29422492262822E-31,0.));
#399=CARTESIAN_POINT('Origin',(-17.1888958887411,1.39920003819197E-31,0.));
#400=CARTESIAN_POINT('',(-16.3777917774821,45.35,0.));
#401=CARTESIAN_POINT('Origin',(-16.3777917774821,1.50417515375573E-31,0.));
#402=CARTESIAN_POINT('Origin',(-15.3027917774821,1.64330433293826E-31,0.));
#403=CARTESIAN_POINT('',(-14.2277917774821,47.5,0.));
#404=CARTESIAN_POINT('Origin',(-14.2277917774821,1.78243351212079E-31,0.));
#405=CARTESIAN_POINT('Origin',(-8.18889588874107,2.56400246855737E-31,0.));
#406=CARTESIAN_POINT('',(-2.15,47.5,0.));
#407=CARTESIAN_POINT('Origin',(-2.15,3.34557142499395E-31,0.));
#408=CARTESIAN_POINT('Origin',(-1.075,3.48470060417649E-31,0.));
#409=UNCERTAINTY_MEASURE_WITH_UNIT(LENGTH_MEASURE(0.01),#413,
'DISTANCE_ACCURACY_VALUE',
'Maximum model space distance between geometric entities at asserted c
onnectivities');
#410=UNCERTAINTY_MEASURE_WITH_UNIT(LENGTH_MEASURE(1.E-6),#413,
'DISTANCE_ACCURACY_VALUE',
'Maximum model space distance between geometric entities at asserted c
onnectivities');
#411=(
GEOMETRIC_REPRESENTATION_CONTEXT(3)
GLOBAL_UNCERTAINTY_ASSIGNED_CONTEXT((#409))
GLOBAL_UNIT_ASSIGNED_CONTEXT((#413,#416,#414))
REPRESENTATION_CONTEXT('','3D')
);
#412=(
GEOMETRIC_REPRESENTATION_CONTEXT(3)
GLOBAL_UNCERTAINTY_ASSIGNED_CONTEXT((#410))
GLOBAL_UNIT_ASSIGNED_CONTEXT((#413,#416,#414))
REPRESENTATION_CONTEXT('','3D')
);
#413=(
LENGTH_UNIT()
NAMED_UNIT(*)
SI_UNIT(.MILLI.,.METRE.)
);
#414=(
NAMED_UNIT(*)
SI_UNIT($,.STERADIAN.)
SOLID_ANGLE_UNIT()
);
#415=DIMENSIONAL_EXPONENTS(0.,0.,0.,0.,0.,0.,0.);
#416=(
CONVERSION_BASED_UNIT('degree',#418)
NAMED_UNIT(#415)
PLANE_ANGLE_UNIT()
);
#417=(
NAMED_UNIT(*)
PLANE_ANGLE_UNIT()
SI_UNIT($,.RADIAN.)
);
#418=PLANE_ANGLE_MEASURE_WITH_UNIT(PLANE_ANGLE_MEASURE(0.01745329252),#417);
#419=SHAPE_DEFINITION_REPRESENTATION(#420,#421);
#420=PRODUCT_DEFINITION_SHAPE('',$,#423);
#421=SHAPE_REPRESENTATION('',(#242),#411);
#422=DESIGN_CONTEXT('part definition',#427,'design');
#423=PRODUCT_DEFINITION('20200065000','20200065000',#424,#422);
#424=PRODUCT_DEFINITION_FORMATION('',$,#429);
#425=PRODUCT_RELATED_PRODUCT_CATEGORY('20200065000','20200065000',(#429));
#426=APPLICATION_PROTOCOL_DEFINITION('international standard',
'ap203_configuration_controlled_3d_design_of_mechanical_parts_and_asse
mblies_mim_lf',2004,#427);
#427=APPLICATION_CONTEXT(
'Configuration Controlled 3D Design of Mechanical Parts and Assemblies');
#428=MECHANICAL_CONTEXT('part definition',#427,'mechanical');
#429=PRODUCT('20200065000','20200065000',$,(#428));
#430=PRESENTATION_STYLE_ASSIGNMENT((#431));
#431=SURFACE_STYLE_USAGE(.BOTH.,#432);
#432=SURFACE_SIDE_STYLE($,(#433));
#433=SURFACE_STYLE_FILL_AREA(#434);
#434=FILL_AREA_STYLE($,(#435));
#435=FILL_AREA_STYLE_COLOUR($,#436);
#436=COLOUR_RGB('',0.745098039215686,0.737254901960784,0.729411764705882);
ENDSEC;
END-ISO-10303-21;
