ISO-10303-21;
HEADER;
/* Generated by software containing ST-Developer
 * from STEP Tools, Inc. (www.steptools.com) 
 */

FILE_DESCRIPTION(
/* description */ ('Z\X\E1vitov\X\E9 hrdlo ZH zaslepovac\X\ED - dle DI
N'),
/* implementation_level */ '2;1');

FILE_NAME(
/* name */ 
'C:\\Vault_Workspace\\DATA\\Katalog Bupospol\\2 Potrubn\X\ED d\X\EDly\\
2.0 \X2\0160\X0\rouben\X\ED\\20200\\20200\\20200080000.stp',
/* time_stamp */ '2016-01-11T08:58:18+01:00',
/* author */ ('Struska'),
/* organization */ ('Bupospol'),
/* preprocessor_version */ 'ST-DEVELOPER v15.6',
/* originating_system */ 'Autodesk Inventor 2015',
/* authorisation */ '');

FILE_SCHEMA (('CONFIG_CONTROL_DESIGN'));
ENDSEC;

DATA;
#10=MECHANICAL_DESIGN_GEOMETRIC_PRESENTATION_REPRESENTATION('',(#210,#212,
#211,#205,#203,#201,#200,#202,#207,#196,#204,#197,#198,#206,#199,#208,#209),
#391);
#11=SHAPE_REPRESENTATION_RELATIONSHIP('SRR','None',#400,#12);
#12=ADVANCED_BREP_SHAPE_REPRESENTATION($,(#13),#390);
#13=MANIFOLD_SOLID_BREP('T\X2\011B\X0\leso1',#229);
#14=CONICAL_SURFACE('',#244,48.475,15.0428007460538);
#15=CONICAL_SURFACE('',#254,48.25,80.);
#16=CONICAL_SURFACE('',#256,53.925,45.0000000000001);
#17=CONICAL_SURFACE('',#260,53.925,45.);
#18=CYLINDRICAL_SURFACE('',#240,15.);
#19=CYLINDRICAL_SURFACE('',#246,47.4);
#20=CYLINDRICAL_SURFACE('',#250,42.5);
#21=CYLINDRICAL_SURFACE('',#253,15.);
#22=CYLINDRICAL_SURFACE('',#258,55.);
#23=FACE_BOUND('',#66,.T.);
#24=FACE_BOUND('',#70,.T.);
#25=FACE_BOUND('',#72,.T.);
#26=FACE_BOUND('',#74,.T.);
#27=FACE_BOUND('',#76,.T.);
#28=FACE_BOUND('',#78,.T.);
#29=FACE_BOUND('',#82,.T.);
#30=FACE_BOUND('',#84,.T.);
#31=FACE_BOUND('',#86,.T.);
#32=FACE_BOUND('',#88,.T.);
#33=CIRCLE('',#234,43.65);
#34=CIRCLE('',#235,15.);
#35=CIRCLE('',#236,15.);
#36=CIRCLE('',#238,15.);
#37=CIRCLE('',#239,15.);
#38=CIRCLE('',#242,52.85);
#39=CIRCLE('',#243,49.55);
#40=CIRCLE('',#245,47.4);
#41=CIRCLE('',#247,47.4);
#42=CIRCLE('',#249,42.5);
#43=CIRCLE('',#251,42.5);
#44=CIRCLE('',#255,52.85);
#45=CIRCLE('',#257,55.);
#46=CIRCLE('',#259,55.);
#47=FACE_OUTER_BOUND('',#63,.T.);
#48=FACE_OUTER_BOUND('',#64,.T.);
#49=FACE_OUTER_BOUND('',#65,.T.);
#50=FACE_OUTER_BOUND('',#67,.T.);
#51=FACE_OUTER_BOUND('',#68,.T.);
#52=FACE_OUTER_BOUND('',#69,.T.);
#53=FACE_OUTER_BOUND('',#71,.T.);
#54=FACE_OUTER_BOUND('',#73,.T.);
#55=FACE_OUTER_BOUND('',#75,.T.);
#56=FACE_OUTER_BOUND('',#77,.T.);
#57=FACE_OUTER_BOUND('',#79,.T.);
#58=FACE_OUTER_BOUND('',#80,.T.);
#59=FACE_OUTER_BOUND('',#81,.T.);
#60=FACE_OUTER_BOUND('',#83,.T.);
#61=FACE_OUTER_BOUND('',#85,.T.);
#62=FACE_OUTER_BOUND('',#87,.T.);
#63=EDGE_LOOP('',(#145,#146,#147,#148));
#64=EDGE_LOOP('',(#149,#150,#151,#152));
#65=EDGE_LOOP('',(#153));
#66=EDGE_LOOP('',(#154,#155,#156,#157));
#67=EDGE_LOOP('',(#158,#159,#160,#161));
#68=EDGE_LOOP('',(#162,#163,#164,#165));
#69=EDGE_LOOP('',(#166));
#70=EDGE_LOOP('',(#167));
#71=EDGE_LOOP('',(#168));
#72=EDGE_LOOP('',(#169));
#73=EDGE_LOOP('',(#170));
#74=EDGE_LOOP('',(#171));
#75=EDGE_LOOP('',(#172));
#76=EDGE_LOOP('',(#173));
#77=EDGE_LOOP('',(#174));
#78=EDGE_LOOP('',(#175));
#79=EDGE_LOOP('',(#176));
#80=EDGE_LOOP('',(#177,#178,#179,#180));
#81=EDGE_LOOP('',(#181));
#82=EDGE_LOOP('',(#182));
#83=EDGE_LOOP('',(#183));
#84=EDGE_LOOP('',(#184));
#85=EDGE_LOOP('',(#185));
#86=EDGE_LOOP('',(#186));
#87=EDGE_LOOP('',(#187));
#88=EDGE_LOOP('',(#188));
#89=LINE('',#335,#97);
#90=LINE('',#337,#98);
#91=LINE('',#339,#99);
#92=LINE('',#340,#100);
#93=LINE('',#344,#101);
#94=LINE('',#346,#102);
#95=LINE('',#348,#103);
#96=LINE('',#349,#104);
#97=VECTOR('',#265,12.);
#98=VECTOR('',#266,18.);
#99=VECTOR('',#267,12.);
#100=VECTOR('',#268,18.);
#101=VECTOR('',#271,12.);
#102=VECTOR('',#272,18.);
#103=VECTOR('',#273,12.);
#104=VECTOR('',#274,18.);
#105=VERTEX_POINT('',#333);
#106=VERTEX_POINT('',#334);
#107=VERTEX_POINT('',#336);
#108=VERTEX_POINT('',#338);
#109=VERTEX_POINT('',#342);
#110=VERTEX_POINT('',#343);
#111=VERTEX_POINT('',#345);
#112=VERTEX_POINT('',#347);
#113=VERTEX_POINT('',#351);
#114=VERTEX_POINT('',#360);
#115=VERTEX_POINT('',#362);
#116=VERTEX_POINT('',#365);
#117=VERTEX_POINT('',#368);
#118=VERTEX_POINT('',#371);
#119=VERTEX_POINT('',#374);
#120=VERTEX_POINT('',#379);
#121=VERTEX_POINT('',#382);
#122=VERTEX_POINT('',#385);
#123=EDGE_CURVE('',#105,#106,#89,.T.);
#124=EDGE_CURVE('',#105,#107,#90,.T.);
#125=EDGE_CURVE('',#108,#107,#91,.T.);
#126=EDGE_CURVE('',#106,#108,#92,.T.);
#127=EDGE_CURVE('',#109,#110,#93,.T.);
#128=EDGE_CURVE('',#111,#109,#94,.T.);
#129=EDGE_CURVE('',#112,#111,#95,.T.);
#130=EDGE_CURVE('',#112,#110,#96,.T.);
#131=EDGE_CURVE('',#113,#113,#33,.T.);
#132=EDGE_CURVE('',#105,#110,#34,.T.);
#133=EDGE_CURVE('',#112,#107,#35,.T.);
#134=EDGE_CURVE('',#111,#108,#36,.T.);
#135=EDGE_CURVE('',#106,#109,#37,.T.);
#136=EDGE_CURVE('',#114,#114,#38,.T.);
#137=EDGE_CURVE('',#115,#115,#39,.T.);
#138=EDGE_CURVE('',#116,#116,#40,.T.);
#139=EDGE_CURVE('',#117,#117,#41,.T.);
#140=EDGE_CURVE('',#118,#118,#42,.T.);
#141=EDGE_CURVE('',#119,#119,#43,.T.);
#142=EDGE_CURVE('',#120,#120,#44,.T.);
#143=EDGE_CURVE('',#121,#121,#45,.T.);
#144=EDGE_CURVE('',#122,#122,#46,.T.);
#145=ORIENTED_EDGE('',*,*,#123,.F.);
#146=ORIENTED_EDGE('',*,*,#124,.T.);
#147=ORIENTED_EDGE('',*,*,#125,.F.);
#148=ORIENTED_EDGE('',*,*,#126,.F.);
#149=ORIENTED_EDGE('',*,*,#127,.F.);
#150=ORIENTED_EDGE('',*,*,#128,.F.);
#151=ORIENTED_EDGE('',*,*,#129,.F.);
#152=ORIENTED_EDGE('',*,*,#130,.T.);
#153=ORIENTED_EDGE('',*,*,#131,.F.);
#154=ORIENTED_EDGE('',*,*,#132,.T.);
#155=ORIENTED_EDGE('',*,*,#130,.F.);
#156=ORIENTED_EDGE('',*,*,#133,.T.);
#157=ORIENTED_EDGE('',*,*,#124,.F.);
#158=ORIENTED_EDGE('',*,*,#126,.T.);
#159=ORIENTED_EDGE('',*,*,#134,.F.);
#160=ORIENTED_EDGE('',*,*,#128,.T.);
#161=ORIENTED_EDGE('',*,*,#135,.F.);
#162=ORIENTED_EDGE('',*,*,#133,.F.);
#163=ORIENTED_EDGE('',*,*,#129,.T.);
#164=ORIENTED_EDGE('',*,*,#134,.T.);
#165=ORIENTED_EDGE('',*,*,#125,.T.);
#166=ORIENTED_EDGE('',*,*,#136,.T.);
#167=ORIENTED_EDGE('',*,*,#137,.F.);
#168=ORIENTED_EDGE('',*,*,#137,.T.);
#169=ORIENTED_EDGE('',*,*,#138,.F.);
#170=ORIENTED_EDGE('',*,*,#138,.T.);
#171=ORIENTED_EDGE('',*,*,#139,.F.);
#172=ORIENTED_EDGE('',*,*,#139,.T.);
#173=ORIENTED_EDGE('',*,*,#140,.F.);
#174=ORIENTED_EDGE('',*,*,#140,.T.);
#175=ORIENTED_EDGE('',*,*,#141,.F.);
#176=ORIENTED_EDGE('',*,*,#141,.T.);
#177=ORIENTED_EDGE('',*,*,#123,.T.);
#178=ORIENTED_EDGE('',*,*,#135,.T.);
#179=ORIENTED_EDGE('',*,*,#127,.T.);
#180=ORIENTED_EDGE('',*,*,#132,.F.);
#181=ORIENTED_EDGE('',*,*,#131,.T.);
#182=ORIENTED_EDGE('',*,*,#142,.F.);
#183=ORIENTED_EDGE('',*,*,#142,.T.);
#184=ORIENTED_EDGE('',*,*,#143,.F.);
#185=ORIENTED_EDGE('',*,*,#143,.T.);
#186=ORIENTED_EDGE('',*,*,#144,.F.);
#187=ORIENTED_EDGE('',*,*,#144,.T.);
#188=ORIENTED_EDGE('',*,*,#136,.F.);
#189=PLANE('',#231);
#190=PLANE('',#232);
#191=PLANE('',#233);
#192=PLANE('',#237);
#193=PLANE('',#241);
#194=PLANE('',#248);
#195=PLANE('',#252);
#196=STYLED_ITEM('',(#409),#213);
#197=STYLED_ITEM('',(#409),#214);
#198=STYLED_ITEM('',(#409),#215);
#199=STYLED_ITEM('',(#409),#216);
#200=STYLED_ITEM('',(#409),#217);
#201=STYLED_ITEM('',(#409),#218);
#202=STYLED_ITEM('',(#409),#219);
#203=STYLED_ITEM('',(#409),#220);
#204=STYLED_ITEM('',(#409),#221);
#205=STYLED_ITEM('',(#409),#222);
#206=STYLED_ITEM('',(#409),#223);
#207=STYLED_ITEM('',(#409),#224);
#208=STYLED_ITEM('',(#409),#225);
#209=STYLED_ITEM('',(#409),#226);
#210=STYLED_ITEM('',(#409),#227);
#211=STYLED_ITEM('',(#409),#228);
#212=STYLED_ITEM('',(#409),#13);
#213=ADVANCED_FACE('',(#47),#189,.T.);
#214=ADVANCED_FACE('',(#48),#190,.T.);
#215=ADVANCED_FACE('',(#49,#23),#191,.T.);
#216=ADVANCED_FACE('',(#50),#192,.T.);
#217=ADVANCED_FACE('',(#51),#18,.T.);
#218=ADVANCED_FACE('',(#52,#24),#193,.T.);
#219=ADVANCED_FACE('',(#53,#25),#14,.F.);
#220=ADVANCED_FACE('',(#54,#26),#19,.F.);
#221=ADVANCED_FACE('',(#55,#27),#194,.T.);
#222=ADVANCED_FACE('',(#56,#28),#20,.T.);
#223=ADVANCED_FACE('',(#57),#195,.T.);
#224=ADVANCED_FACE('',(#58),#21,.T.);
#225=ADVANCED_FACE('',(#59,#29),#15,.T.);
#226=ADVANCED_FACE('',(#60,#30),#16,.T.);
#227=ADVANCED_FACE('',(#61,#31),#22,.T.);
#228=ADVANCED_FACE('',(#62,#32),#17,.T.);
#229=CLOSED_SHELL('',(#213,#214,#215,#216,#217,#218,#219,#220,#221,#222,
#223,#224,#225,#226,#227,#228));
#230=AXIS2_PLACEMENT_3D('placement',#331,#261,#262);
#231=AXIS2_PLACEMENT_3D('',#332,#263,#264);
#232=AXIS2_PLACEMENT_3D('',#341,#269,#270);
#233=AXIS2_PLACEMENT_3D('',#350,#275,#276);
#234=AXIS2_PLACEMENT_3D('',#352,#277,#278);
#235=AXIS2_PLACEMENT_3D('',#353,#279,#280);
#236=AXIS2_PLACEMENT_3D('',#354,#281,#282);
#237=AXIS2_PLACEMENT_3D('',#355,#283,#284);
#238=AXIS2_PLACEMENT_3D('',#356,#285,#286);
#239=AXIS2_PLACEMENT_3D('',#357,#287,#288);
#240=AXIS2_PLACEMENT_3D('',#358,#289,#290);
#241=AXIS2_PLACEMENT_3D('',#359,#291,#292);
#242=AXIS2_PLACEMENT_3D('',#361,#293,#294);
#243=AXIS2_PLACEMENT_3D('',#363,#295,#296);
#244=AXIS2_PLACEMENT_3D('',#364,#297,#298);
#245=AXIS2_PLACEMENT_3D('',#366,#299,#300);
#246=AXIS2_PLACEMENT_3D('',#367,#301,#302);
#247=AXIS2_PLACEMENT_3D('',#369,#303,#304);
#248=AXIS2_PLACEMENT_3D('',#370,#305,#306);
#249=AXIS2_PLACEMENT_3D('',#372,#307,#308);
#250=AXIS2_PLACEMENT_3D('',#373,#309,#310);
#251=AXIS2_PLACEMENT_3D('',#375,#311,#312);
#252=AXIS2_PLACEMENT_3D('',#376,#313,#314);
#253=AXIS2_PLACEMENT_3D('',#377,#315,#316);
#254=AXIS2_PLACEMENT_3D('',#378,#317,#318);
#255=AXIS2_PLACEMENT_3D('',#380,#319,#320);
#256=AXIS2_PLACEMENT_3D('',#381,#321,#322);
#257=AXIS2_PLACEMENT_3D('',#383,#323,#324);
#258=AXIS2_PLACEMENT_3D('',#384,#325,#326);
#259=AXIS2_PLACEMENT_3D('',#386,#327,#328);
#260=AXIS2_PLACEMENT_3D('',#387,#329,#330);
#261=DIRECTION('axis',(0.,0.,1.));
#262=DIRECTION('refdir',(1.,0.,0.));
#263=DIRECTION('center_axis',(0.,0.,1.));
#264=DIRECTION('ref_axis',(0.,-1.,0.));
#265=DIRECTION('',(-1.,-9.95557632790939E-33,0.));
#266=DIRECTION('',(0.,1.,0.));
#267=DIRECTION('',(1.,9.95557632790939E-33,0.));
#268=DIRECTION('',(-9.95557632790939E-33,1.,0.));
#269=DIRECTION('center_axis',(0.,0.,-1.));
#270=DIRECTION('ref_axis',(0.,1.,0.));
#271=DIRECTION('',(1.,9.95557632790939E-33,0.));
#272=DIRECTION('',(9.95557632790939E-33,-1.,0.));
#273=DIRECTION('',(-1.,-9.95557632790939E-33,0.));
#274=DIRECTION('',(0.,-1.,0.));
#275=DIRECTION('center_axis',(-1.,-9.9555763279094E-33,0.));
#276=DIRECTION('ref_axis',(0.,0.,1.));
#277=DIRECTION('center_axis',(1.,9.9555763279094E-33,0.));
#278=DIRECTION('ref_axis',(0.,0.,-1.));
#279=DIRECTION('center_axis',(1.,9.9555763279094E-33,0.));
#280=DIRECTION('ref_axis',(0.,0.,-1.));
#281=DIRECTION('center_axis',(1.,9.9555763279094E-33,0.));
#282=DIRECTION('ref_axis',(0.,0.,-1.));
#283=DIRECTION('center_axis',(-1.,-9.9555763279094E-33,0.));
#284=DIRECTION('ref_axis',(0.,0.,1.));
#285=DIRECTION('center_axis',(1.,9.9555763279094E-33,0.));
#286=DIRECTION('ref_axis',(0.,0.,-1.));
#287=DIRECTION('center_axis',(1.,9.9555763279094E-33,0.));
#288=DIRECTION('ref_axis',(0.,0.,-1.));
#289=DIRECTION('center_axis',(1.,9.9555763279094E-33,0.));
#290=DIRECTION('ref_axis',(0.,1.,0.));
#291=DIRECTION('center_axis',(1.,9.9555763279094E-33,0.));
#292=DIRECTION('ref_axis',(0.,0.,-1.));
#293=DIRECTION('center_axis',(1.,9.9555763279094E-33,0.));
#294=DIRECTION('ref_axis',(0.,0.,-1.));
#295=DIRECTION('center_axis',(1.,9.9555763279094E-33,0.));
#296=DIRECTION('ref_axis',(0.,0.,-1.));
#297=DIRECTION('center_axis',(1.,9.9555763279094E-33,0.));
#298=DIRECTION('ref_axis',(0.,1.,0.));
#299=DIRECTION('center_axis',(1.,9.9555763279094E-33,0.));
#300=DIRECTION('ref_axis',(0.,0.,-1.));
#301=DIRECTION('center_axis',(1.,9.9555763279094E-33,0.));
#302=DIRECTION('ref_axis',(0.,1.,0.));
#303=DIRECTION('center_axis',(1.,9.9555763279094E-33,0.));
#304=DIRECTION('ref_axis',(0.,0.,-1.));
#305=DIRECTION('center_axis',(1.,9.9555763279094E-33,0.));
#306=DIRECTION('ref_axis',(0.,0.,-1.));
#307=DIRECTION('center_axis',(1.,9.9555763279094E-33,0.));
#308=DIRECTION('ref_axis',(0.,0.,-1.));
#309=DIRECTION('center_axis',(1.,9.9555763279094E-33,0.));
#310=DIRECTION('ref_axis',(0.,1.,0.));
#311=DIRECTION('center_axis',(1.,9.9555763279094E-33,0.));
#312=DIRECTION('ref_axis',(0.,0.,-1.));
#313=DIRECTION('center_axis',(1.,9.9555763279094E-33,0.));
#314=DIRECTION('ref_axis',(0.,0.,-1.));
#315=DIRECTION('center_axis',(1.,9.9555763279094E-33,0.));
#316=DIRECTION('ref_axis',(0.,1.,0.));
#317=DIRECTION('center_axis',(1.,9.9555763279094E-33,0.));
#318=DIRECTION('ref_axis',(0.,1.,0.));
#319=DIRECTION('center_axis',(1.,9.9555763279094E-33,0.));
#320=DIRECTION('ref_axis',(0.,0.,-1.));
#321=DIRECTION('center_axis',(1.,9.9555763279094E-33,0.));
#322=DIRECTION('ref_axis',(0.,1.,0.));
#323=DIRECTION('center_axis',(1.,9.9555763279094E-33,0.));
#324=DIRECTION('ref_axis',(0.,0.,-1.));
#325=DIRECTION('center_axis',(1.,9.9555763279094E-33,0.));
#326=DIRECTION('ref_axis',(0.,1.,0.));
#327=DIRECTION('center_axis',(1.,9.9555763279094E-33,0.));
#328=DIRECTION('ref_axis',(0.,0.,-1.));
#329=DIRECTION('center_axis',(-1.,-9.9555763279094E-33,0.));
#330=DIRECTION('ref_axis',(0.,1.,0.));
#331=CARTESIAN_POINT('',(0.,0.,0.));
#332=CARTESIAN_POINT('Origin',(-34.,15.,12.));
#333=CARTESIAN_POINT('',(-22.,-9.,12.));
#334=CARTESIAN_POINT('',(-34.,-9.,12.));
#335=CARTESIAN_POINT('',(-28.,-9.,12.));
#336=CARTESIAN_POINT('',(-22.,9.,12.));
#337=CARTESIAN_POINT('',(-22.,7.5,12.));
#338=CARTESIAN_POINT('',(-34.,9.,12.));
#339=CARTESIAN_POINT('',(-28.,9.,12.));
#340=CARTESIAN_POINT('',(-34.,15.,12.));
#341=CARTESIAN_POINT('Origin',(-34.,-15.,-12.));
#342=CARTESIAN_POINT('',(-34.,-9.,-12.));
#343=CARTESIAN_POINT('',(-22.,-9.,-12.));
#344=CARTESIAN_POINT('',(-28.,-9.,-12.));
#345=CARTESIAN_POINT('',(-34.,9.,-12.));
#346=CARTESIAN_POINT('',(-34.,1.48670250031245E-63,-12.));
#347=CARTESIAN_POINT('',(-22.,9.,-12.));
#348=CARTESIAN_POINT('',(-28.,9.,-12.));
#349=CARTESIAN_POINT('',(-22.,-7.5,-12.));
#350=CARTESIAN_POINT('Origin',(-22.,43.65,0.));
#351=CARTESIAN_POINT('',(-22.,43.65,0.));
#352=CARTESIAN_POINT('Origin',(-22.,1.19466915934913E-31,0.));
#353=CARTESIAN_POINT('Origin',(-22.,1.19466915934913E-31,0.));
#354=CARTESIAN_POINT('Origin',(-22.,1.19466915934913E-31,0.));
#355=CARTESIAN_POINT('Origin',(-34.,15.,0.));
#356=CARTESIAN_POINT('Origin',(-34.,0.,0.));
#357=CARTESIAN_POINT('Origin',(-34.,0.,0.));
#358=CARTESIAN_POINT('Origin',(-28.,5.97334579674564E-32,0.));
#359=CARTESIAN_POINT('Origin',(0.,49.55,0.));
#360=CARTESIAN_POINT('',(0.,52.85,0.));
#361=CARTESIAN_POINT('Origin',(0.,3.3848959514892E-31,0.));
#362=CARTESIAN_POINT('',(0.,49.55,0.));
#363=CARTESIAN_POINT('Origin',(0.,3.3848959514892E-31,0.));
#364=CARTESIAN_POINT('Origin',(-4.,2.98667289837282E-31,0.));
#365=CARTESIAN_POINT('',(-8.,47.4,0.));
#366=CARTESIAN_POINT('Origin',(-8.,2.58844984525644E-31,0.));
#367=CARTESIAN_POINT('Origin',(-9.75,2.41422725951803E-31,0.));
#368=CARTESIAN_POINT('',(-11.5,47.4,0.));
#369=CARTESIAN_POINT('Origin',(-11.5,2.24000467377961E-31,0.));
#370=CARTESIAN_POINT('Origin',(-11.5,42.5,0.));
#371=CARTESIAN_POINT('',(-11.5,42.5,0.));
#372=CARTESIAN_POINT('Origin',(-11.5,2.24000467377961E-31,0.));
#373=CARTESIAN_POINT('Origin',(-9.75000000000001,2.41422725951803E-31,0.));
#374=CARTESIAN_POINT('',(-8.00000000000001,42.5,0.));
#375=CARTESIAN_POINT('Origin',(-8.00000000000001,2.58844984525644E-31,0.));
#376=CARTESIAN_POINT('Origin',(-7.99999999999999,2.58844984525644E-31,0.));
#377=CARTESIAN_POINT('Origin',(-28.,5.97334579674564E-32,0.));
#378=CARTESIAN_POINT('Origin',(-21.1888958887411,1.27541924824432E-31,0.));
#379=CARTESIAN_POINT('',(-20.3777917774821,52.85,0.));
#380=CARTESIAN_POINT('Origin',(-20.3777917774821,1.35616933713952E-31,0.));
#381=CARTESIAN_POINT('Origin',(-19.3027917774821,1.46319178266454E-31,0.));
#382=CARTESIAN_POINT('',(-18.2277917774821,55.,0.));
#383=CARTESIAN_POINT('Origin',(-18.2277917774821,1.57021422818957E-31,0.));
#384=CARTESIAN_POINT('Origin',(-10.1888958887411,2.37053264431436E-31,0.));
#385=CARTESIAN_POINT('',(-2.15,55.,0.));
#386=CARTESIAN_POINT('Origin',(-2.15,3.17085106043914E-31,0.));
#387=CARTESIAN_POINT('Origin',(-1.075,3.27787350596417E-31,0.));
#388=UNCERTAINTY_MEASURE_WITH_UNIT(LENGTH_MEASURE(0.01),#392,
'DISTANCE_ACCURACY_VALUE',
'Maximum model space distance between geometric entities at asserted c
onnectivities');
#389=UNCERTAINTY_MEASURE_WITH_UNIT(LENGTH_MEASURE(1.E-6),#392,
'DISTANCE_ACCURACY_VALUE',
'Maximum model space distance between geometric entities at asserted c
onnectivities');
#390=(
GEOMETRIC_REPRESENTATION_CONTEXT(3)
GLOBAL_UNCERTAINTY_ASSIGNED_CONTEXT((#388))
GLOBAL_UNIT_ASSIGNED_CONTEXT((#392,#395,#393))
REPRESENTATION_CONTEXT('','3D')
);
#391=(
GEOMETRIC_REPRESENTATION_CONTEXT(3)
GLOBAL_UNCERTAINTY_ASSIGNED_CONTEXT((#389))
GLOBAL_UNIT_ASSIGNED_CONTEXT((#392,#395,#393))
REPRESENTATION_CONTEXT('','3D')
);
#392=(
LENGTH_UNIT()
NAMED_UNIT(*)
SI_UNIT(.MILLI.,.METRE.)
);
#393=(
NAMED_UNIT(*)
SI_UNIT($,.STERADIAN.)
SOLID_ANGLE_UNIT()
);
#394=DIMENSIONAL_EXPONENTS(0.,0.,0.,0.,0.,0.,0.);
#395=(
CONVERSION_BASED_UNIT('degree',#397)
NAMED_UNIT(#394)
PLANE_ANGLE_UNIT()
);
#396=(
NAMED_UNIT(*)
PLANE_ANGLE_UNIT()
SI_UNIT($,.RADIAN.)
);
#397=PLANE_ANGLE_MEASURE_WITH_UNIT(PLANE_ANGLE_MEASURE(0.01745329252),#396);
#398=SHAPE_DEFINITION_REPRESENTATION(#399,#400);
#399=PRODUCT_DEFINITION_SHAPE('',$,#402);
#400=SHAPE_REPRESENTATION('',(#230),#390);
#401=DESIGN_CONTEXT('part definition',#406,'design');
#402=PRODUCT_DEFINITION('20200080000','20200080000',#403,#401);
#403=PRODUCT_DEFINITION_FORMATION('',$,#408);
#404=PRODUCT_RELATED_PRODUCT_CATEGORY('20200080000','20200080000',(#408));
#405=APPLICATION_PROTOCOL_DEFINITION('international standard',
'ap203_configuration_controlled_3d_design_of_mechanical_parts_and_asse
mblies_mim_lf',2004,#406);
#406=APPLICATION_CONTEXT(
'Configuration Controlled 3D Design of Mechanical Parts and Assemblies');
#407=MECHANICAL_CONTEXT('part definition',#406,'mechanical');
#408=PRODUCT('20200080000','20200080000',$,(#407));
#409=PRESENTATION_STYLE_ASSIGNMENT((#410));
#410=SURFACE_STYLE_USAGE(.BOTH.,#411);
#411=SURFACE_SIDE_STYLE($,(#412));
#412=SURFACE_STYLE_FILL_AREA(#413);
#413=FILL_AREA_STYLE($,(#414));
#414=FILL_AREA_STYLE_COLOUR($,#415);
#415=COLOUR_RGB('',0.745098039215686,0.737254901960784,0.729411764705882);
ENDSEC;
END-ISO-10303-21;
