                                                                        S      1
,,42HKuželové hrdlo KH zaslepovací - dle DIN,11H20210020000,22HAutodeG      1
sk Inventor 2015,7Hunknown,32,38,7,99,15,,1.,2,2HMM,1,0.08,15H20160301.1G      2
14011,0.01,10000.,14HStruska Martin,40HBupospol, Armaturka Koukol, spol.G      3
 s r.o.,11,0,15H20140815.043234;                                        G      4
     186       1                                                00000000D      1
     186             -75       1       0                               0D      2
     514       2                                                00010000D      3
     514                       1       1                               0D      4
     510       3                                                00010000D      5
     510             -75       1       1                               0D      6
     510       4                                                00010000D      7
     510             -75       1       1                               0D      8
     510       5                                                00010000D      9
     510             -75       1       1                               0D     10
     510       6                                                00010000D     11
     510             -75       1       1                               0D     12
     510       7                                                00010000D     13
     510             -75       1       1                               0D     14
     510       8                                                00010000D     15
     510             -75       1       1                               0D     16
     508       9                                                00010000D     17
     508                       1       1                               0D     18
     508      10                                                00010000D     19
     508                       2       1                               0D     20
     508      12                                                00010000D     21
     508                       1       1                               0D     22
     508      13                                                00010000D     23
     508                       1       1                               0D     24
     508      14                                                00010000D     25
     508                       2       1                               0D     26
     508      16                                                00010000D     27
     508                       2       1                               0D     28
     508      18                                                00010000D     29
     508                       1       1                               0D     30
     126      19                                                00010000D     31
     126       0               6       0                               0D     32
     126      25                                                00010000D     33
     126       0               7       0                               0D     34
     126      32                                                00010000D     35
     126       0               8       0                               0D     36
     126      40                                                00010000D     37
     126       0               8       0                               0D     38
     126      48                                                00010000D     39
     126       0               2       0                               0D     40
     126      50                                                00010000D     41
     126       0               8       0                               0D     42
     126      58                                                00010000D     43
     126       0               8       0                               0D     44
     126      66                                                00010000D     45
     126       0               8       0                               0D     46
     126      74                                                00010000D     47
     126       0               8       0                               0D     48
     126      82                                                00010000D     49
     126       0               4       0                               0D     50
     126      86                                                00010000D     51
     126       0               8       0                               0D     52
     126      94                                                00010000D     53
     126       0               8       0                               0D     54
     126     102                                                00010000D     55
     126       0               4       0                               0D     56
     128     106                                                00010000D     57
     128       0     -75       4       0                               0D     58
     128     110                                                00010000D     59
     128       0     -75      14       0                               0D     60
     128     124                                                00010000D     61
     128       0     -75       5       0                               0D     62
     128     129                                                00010000D     63
     128       0     -75      18       0                               0D     64
     128     147                                                00010000D     65
     128       0     -75      19       0                               0D     66
     128     166                                                00010000D     67
     128       0     -75       3       0                               0D     68
     502     169                                                00010000D     69
     502                       5       1                               0D     70
     504     174                                                00010001D     71
     504                       3       1                               0D     72
     406     177                                                00000000D     73
     406                       1      15                               0D     74
     314     178                                                00000200D     75
     314                       1       0                               0D     76
186,3,1,0,0,1,73;                                                      1P      1
514,6,5,1,7,1,9,1,11,1,13,1,15,1;                                      3P      2
510,57,1,1,17;                                                         5P      3
510,59,1,1,19;                                                         7P      4
510,61,2,1,21,23;                                                      9P      5
510,63,1,1,25;                                                        11P      6
510,65,1,1,27;                                                        13P      7
510,67,1,1,29;                                                        15P      8
508,2,0,71,1,0,0,0,71,2,0,0;                                          17P      9
508,6,0,71,3,0,0,0,71,4,0,0,0,71,5,1,0,0,71,2,1,0,0,71,1,1,0,0,       19P     10
71,5,0,0;                                                             19P     11
508,2,0,71,6,0,0,0,71,7,0,0;                                          21P     12
508,2,0,71,3,1,0,0,71,4,1,0;                                          23P     13
508,6,0,71,8,0,0,0,71,9,0,0,0,71,10,1,0,0,71,7,1,0,0,71,6,1,0,0,      25P     14
71,10,0,0;                                                            25P     15
508,6,0,71,11,0,0,0,71,12,0,0,0,71,13,1,0,0,71,9,1,0,0,71,8,1,0,      27P     16
0,71,13,0,0;                                                          27P     17
508,2,0,71,11,1,0,0,71,12,1,0;                                        29P     18
126,4,2,0,0,0,0,1.5707963267949,1.5707963267949,1.5707963267949,      31P     19
3.14159265358979,3.14159265358979,4.71238898038469,                   31P     20
4.71238898038469,4.71238898038469,1.,0.707106781186548,1.,            31P     21
0.707106781186548,1.,-11.,15.,-9.18485099360515D-16,-11.,15.,         31P     22
15.,-11.,1.83697019872103D-15,15.,-11.,-15.,15.,-11.,-15.,            31P     23
2.75545529808154D-15,1.5707963267949,4.71238898038469,0.,0.,0.;       31P     24
126,4,2,0,0,0,0,4.71238898038469,4.71238898038469,                    33P     25
4.71238898038469,6.28318530717959,6.28318530717959,                   33P     26
7.85398163397448,7.85398163397448,7.85398163397448,1.,                33P     27
0.707106781186547,1.,0.707106781186547,1.,-11.,-15.,                  33P     28
2.75545529808154D-15,-11.,-15.,-15.,-11.,-3.67394039744206D-15,       33P     29
-15.,-11.,15.,-15.,-11.,15.,-4.59242549680258D-15,                    33P     30
4.71238898038469,7.85398163397448,0.,0.,0.;                           33P     31
126,4,2,0,0,0,0,1.5707963267949,1.5707963267949,1.5707963267949,      35P     32
3.14159265358979,3.14159265358979,4.71238898038469,                   35P     33
4.71238898038469,4.71238898038469,1.,0.707106781186548,1.,            35P     34
0.707106781186548,1.,-8.00000000000001,15.,                           35P     35
-9.18485099360515D-16,-8.00000000000001,15.,15.,                      35P     36
-8.00000000000001,1.83697019872103D-15,15.,-8.00000000000001,         35P     37
-15.,15.,-8.00000000000001,-15.,2.75545529808154D-15,                 35P     38
1.5707963267949,4.71238898038469,0.,0.,0.;                            35P     39
126,4,2,0,0,0,0,4.71238898038469,4.71238898038469,                    37P     40
4.71238898038469,6.28318530717959,6.28318530717959,                   37P     41
7.85398163397448,7.85398163397448,7.85398163397448,1.,                37P     42
0.707106781186547,1.,0.707106781186547,1.,-8.00000000000001,          37P     43
-15.,2.75545529808154D-15,-8.00000000000001,-15.,-15.,                37P     44
-8.00000000000001,-3.67394039744206D-15,-15.,-8.00000000000001,       37P     45
15.,-15.,-8.00000000000001,15.,-4.59242549680258D-15,                 37P     46
4.71238898038469,7.85398163397448,0.,0.,0.;                           37P     47
126,1,1,0,0,1,0,-0.1,-0.1,0.1,0.1,1.,1.,-8.00000000000001,-15.,       39P     48
0.,-11.,-15.,0.,-0.1,0.1,0.,0.,0.;                                    39P     49
126,4,2,0,0,0,0,1.5707963267949,1.5707963267949,1.5707963267949,      41P     50
3.14159265358979,3.14159265358979,4.71238898038469,                   41P     51
4.71238898038469,4.71238898038469,1.,0.707106781186547,1.,            41P     52
0.707106781186548,1.,-8.00000000000001,18.25,                         41P     53
-1.11749020422196D-15,-8.00000000000001,18.25,18.25,                  41P     54
-8.00000000000001,2.23498040844392D-15,18.25,-8.00000000000001,       41P     55
-18.25,18.25,-8.00000000000001,-18.25,3.35247061266588D-15,           41P     56
1.5707963267949,4.71238898038469,0.,0.,0.;                            41P     57
126,4,2,0,0,0,0,4.71238898038469,4.71238898038469,                    43P     58
4.71238898038469,6.28318530717959,6.28318530717959,                   43P     59
7.85398163397448,7.85398163397448,7.85398163397448,1.,                43P     60
0.707106781186547,1.,0.707106781186547,1.,-8.00000000000001,          43P     61
-18.25,3.35247061266588D-15,-8.00000000000001,-18.25,-18.25,          43P     62
-8.00000000000001,-4.46996081688784D-15,-18.25,                       43P     63
-8.00000000000001,18.25,-18.25,-8.00000000000001,18.25,               43P     64
-5.5874510211098D-15,4.71238898038469,7.85398163397448,0.,0.,0.;      43P     65
126,4,2,0,0,0,0,1.5707963267949,1.5707963267949,1.5707963267949,      45P     66
3.14159265358979,3.14159265358979,4.71238898038469,                   45P     67
4.71238898038469,4.71238898038469,1.,0.707106781186548,1.,            45P     68
0.707106781186548,1.,-1.53802836455465,16.24,                         45P     69
-9.9441320090765D-16,-1.53802836455465,16.24,16.24,                   45P     70
-1.53802836455465,1.9888264018153D-15,16.24,-1.53802836455465,        45P     71
-16.24,16.24,-1.53802836455465,-16.24,2.98323960272295D-15,           45P     72
1.5707963267949,4.71238898038469,0.,0.,0.;                            45P     73
126,4,2,0,0,0,0,4.71238898038469,4.71238898038469,                    47P     74
4.71238898038469,6.28318530717959,6.28318530717959,                   47P     75
7.85398163397448,7.85398163397448,7.85398163397448,1.,                47P     76
0.707106781186547,1.,0.707106781186547,1.,-1.53802836455465,          47P     77
-16.24,2.98323960272295D-15,-1.53802836455465,-16.24,-16.24,          47P     78
-1.53802836455465,-3.9776528036306D-15,-16.24,-1.53802836455465,      47P     79
16.24,-16.24,-1.53802836455465,16.24,-4.97206600453825D-15,           47P     80
4.71238898038469,7.85398163397448,0.,0.,0.;                           47P     81
126,1,1,0,0,1,0,-0.196212269807744,-0.196212269807744,                49P     82
0.196212269807744,0.196212269807744,1.,1.,-1.53802836455465,          49P     83
-16.24,0.,-8.00000000000001,-18.25,0.,-0.196212269807744,             49P     84
0.196212269807744,0.,0.,0.;                                           49P     85
126,4,2,0,0,0,0,1.5707963267949,1.5707963267949,1.5707963267949,      51P     86
3.14159265358979,3.14159265358979,4.71238898038469,                   51P     87
4.71238898038469,4.71238898038469,1.,0.707106781186548,1.,            51P     88
0.707106781186548,1.,-2.22044604925031D-15,10.5,                      51P     89
-6.4293956955236D-16,-2.22044604925031D-15,10.5,10.5,                 51P     90
-2.22044604925031D-15,1.28587913910472D-15,10.5,                      51P     91
-2.22044604925031D-15,-10.5,10.5,-2.22044604925031D-15,-10.5,         51P     92
1.92881870865708D-15,1.5707963267949,4.71238898038469,0.,0.,0.;       51P     93
126,4,2,0,0,0,0,4.71238898038469,4.71238898038469,                    53P     94
4.71238898038469,6.28318530717959,6.28318530717959,                   53P     95
7.85398163397448,7.85398163397448,7.85398163397448,1.,                53P     96
0.707106781186547,1.,0.707106781186547,1.,-2.22044604925031D-15,      53P     97
-10.5,1.92881870865708D-15,-2.22044604925031D-15,-10.5,-10.5,         53P     98
-2.22044604925031D-15,-2.57175827820944D-15,-10.5,                    53P     99
-2.22044604925031D-15,10.5,-10.5,-2.22044604925031D-15,10.5,          53P    100
-3.2146978477618D-15,4.71238898038469,7.85398163397448,0.,0.,0.;      53P    101
126,1,1,0,0,1,0,-0.22223205966918,-0.22223205966918,                  55P    102
0.22223205966918,0.22223205966918,1.,1.,-1.66533453693773D-15,        55P    103
-10.5,0.,-1.53802836455465,-16.24,0.,-0.22223205966918,               55P    104
0.22223205966918,0.,0.,0.;                                            55P    105
128,1,1,1,1,0,0,1,0,0,-1.5,-1.5,1.5,1.5,-3.,-3.,                      57P    106
2.40458836715224D-17,2.40458836715224D-17,1.,1.,1.,1.,-11.,-15.,      57P    107
-15.,-11.,-15.,15.,-11.,15.,-15.,-11.,15.,15.,-1.5,1.5,-3.,           57P    108
2.40458836715224D-17;                                                 57P    109
128,1,8,1,2,0,1,0,0,0,-0.1,-0.1,0.1,0.1,-3.14159265358979,            59P    110
-3.14159265358979,-3.14159265358979,-1.5707963267949,                 59P    111
-1.5707963267949,0.,0.,1.5707963267949,1.5707963267949,               59P    112
3.14159265358979,3.14159265358979,3.14159265358979,1.,1.,             59P    113
0.707106781186548,0.707106781186548,1.,1.,0.707106781186548,          59P    114
0.707106781186548,1.,1.,0.707106781186548,0.707106781186548,1.,       59P    115
1.,0.707106781186548,0.707106781186548,1.,1.,-8.00000000000001,       59P    116
-15.,0.,-11.,-15.,0.,-8.00000000000001,-15.,-15.,-11.,-15.,-15.,      59P    117
-8.00000000000001,0.,-15.,-11.,0.,-15.,-8.00000000000001,15.,         59P    118
-15.,-11.,15.,-15.,-8.00000000000001,15.,0.,-11.,15.,0.,              59P    119
-8.00000000000001,15.,15.,-11.,15.,15.,-8.00000000000001,0.,15.,      59P    120
-11.,0.,15.,-8.00000000000001,-15.,15.,-11.,-15.,15.,                 59P    121
-8.00000000000001,-15.,0.,-11.,-15.,0.,-0.1,0.1,                      59P    122
-3.14159265358979,3.14159265358979;                                   59P    123
128,1,1,1,1,0,0,1,0,0,-1.825,-1.825,1.825,1.825,-3.65,-3.65,          61P    124
2.22044604925031D-16,2.22044604925031D-16,1.,1.,1.,1.,                61P    125
-8.00000000000001,-18.25,-18.25,-8.00000000000001,-18.25,18.25,       61P    126
-8.00000000000001,18.25,-18.25,-8.00000000000001,18.25,18.25,         61P    127
-1.825,1.825,-3.65,2.22044604925031D-16;                              61P    128
128,1,8,1,2,0,1,0,0,0,-0.196212269807744,-0.196212269807744,          63P    129
0.196212269807744,0.196212269807744,-3.14159265358979,                63P    130
-3.14159265358979,-3.14159265358979,-1.5707963267949,                 63P    131
-1.5707963267949,0.,0.,1.5707963267949,1.5707963267949,               63P    132
3.14159265358979,3.14159265358979,3.14159265358979,1.,1.,             63P    133
0.707106781186548,0.707106781186548,1.,1.,0.707106781186548,          63P    134
0.707106781186548,1.,1.,0.707106781186548,0.707106781186548,1.,       63P    135
1.,0.707106781186548,0.707106781186548,1.,1.,-1.53802836455465,       63P    136
-16.24,0.,-8.00000000000001,-18.25,0.,-1.53802836455465,-16.24,       63P    137
-16.24,-8.00000000000001,-18.25,-18.25,-1.53802836455465,0.,          63P    138
-16.24,-8.00000000000001,0.,-18.25,-1.53802836455465,16.24,           63P    139
-16.24,-8.00000000000001,18.25,-18.25,-1.53802836455465,16.24,        63P    140
0.,-8.00000000000001,18.25,0.,-1.53802836455465,16.24,16.24,          63P    141
-8.00000000000001,18.25,18.25,-1.53802836455465,0.,16.24,             63P    142
-8.00000000000001,0.,18.25,-1.53802836455465,-16.24,16.24,            63P    143
-8.00000000000001,-18.25,18.25,-1.53802836455465,-16.24,0.,           63P    144
-8.00000000000001,-18.25,0.,-0.196212269807744,                       63P    145
0.196212269807744,-3.14159265358979,3.14159265358979;                 63P    146
128,1,8,1,2,0,1,0,0,0,-0.22223205966918,-0.22223205966918,            65P    147
0.22223205966918,0.22223205966918,-3.14159265358979,                  65P    148
-3.14159265358979,-3.14159265358979,-1.5707963267949,                 65P    149
-1.5707963267949,0.,0.,1.5707963267949,1.5707963267949,               65P    150
3.14159265358979,3.14159265358979,3.14159265358979,1.,1.,             65P    151
0.707106781186548,0.707106781186548,1.,1.,0.707106781186548,          65P    152
0.707106781186548,1.,1.,0.707106781186548,0.707106781186548,1.,       65P    153
1.,0.707106781186548,0.707106781186548,1.,1.,                         65P    154
-1.66533453693773D-15,-10.5,0.,-1.53802836455465,-16.24,0.,           65P    155
-1.66533453693773D-15,-10.5,-10.5,-1.53802836455465,-16.24,           65P    156
-16.24,-1.66533453693773D-15,0.,-10.5,-1.53802836455465,0.,           65P    157
-16.24,-1.66533453693773D-15,10.5,-10.5,-1.53802836455465,16.24,      65P    158
-16.24,-1.66533453693773D-15,10.5,0.,-1.53802836455465,16.24,0.,      65P    159
-1.66533453693773D-15,10.5,10.5,-1.53802836455465,16.24,16.24,        65P    160
-1.66533453693773D-15,0.,10.5,-1.53802836455465,0.,16.24,             65P    161
-1.66533453693773D-15,-10.5,10.5,-1.53802836455465,-16.24,16.24,      65P    162
-1.66533453693773D-15,-10.5,0.,-1.53802836455465,-16.24,0.,           65P    163
-0.22223205966918,0.22223205966918,-3.14159265358979,                 65P    164
3.14159265358979;                                                     65P    165
128,1,1,1,1,0,0,1,0,0,-1.05,-1.05,1.05,1.05,-1.05,-1.05,1.05,         67P    166
1.05,1.,1.,1.,1.,0.,-10.5,10.5,0.,-10.5,-10.5,0.,10.5,10.5,0.,        67P    167
10.5,-10.5,-1.05,1.05,-1.05,1.05;                                     67P    168
502,10,-11.,15.,0.,-11.,-15.,0.,-8.00000000000001,15.,0.,             69P    169
-8.00000000000001,-15.,0.,-8.00000000000001,18.25,0.,                 69P    170
-8.00000000000001,-18.25,0.,-1.53802836455465,16.24,0.,               69P    171
-1.53802836455465,-16.24,0.,-2.22044604925031D-15,10.5,0.,            69P    172
-1.66533453693773D-15,-10.5,0.;                                       69P    173
504,13,31,69,1,69,2,33,69,2,69,1,35,69,3,69,4,37,69,4,69,3,39,        71P    174
69,4,69,2,41,69,5,69,6,43,69,6,69,5,45,69,7,69,8,47,69,8,69,7,        71P    175
49,69,8,69,6,51,69,9,69,10,53,69,10,69,9,55,69,10,69,8;               71P    176
406,1,8HTěleso1;                                                     73P    177
314,74.5098039215686,73.7254901960784,72.9411764705882,;              75P    178
S      1G      4D     76P    178                                        T      1
