                                                                        S      1
,,42HKuželové hrdlo KH zaslepovací - dle DIN,11H20210025000,22HAutodeG      1
sk Inventor 2015,7Hunknown,32,38,7,99,15,,1.,2,2HMM,1,0.08,15H20160301.1G      2
14005,0.01,10000.,14HStruska Martin,40HBupospol, Armaturka Koukol, spol.G      3
 s r.o.,11,0,15H20140815.043234;                                        G      4
     186       1                                                00000000D      1
     186             -75       1       0                               0D      2
     514       2                                                00010000D      3
     514                       1       1                               0D      4
     510       3                                                00010000D      5
     510             -75       1       1                               0D      6
     510       4                                                00010000D      7
     510             -75       1       1                               0D      8
     510       5                                                00010000D      9
     510             -75       1       1                               0D     10
     510       6                                                00010000D     11
     510             -75       1       1                               0D     12
     510       7                                                00010000D     13
     510             -75       1       1                               0D     14
     510       8                                                00010000D     15
     510             -75       1       1                               0D     16
     508       9                                                00010000D     17
     508                       1       1                               0D     18
     508      10                                                00010000D     19
     508                       2       1                               0D     20
     508      12                                                00010000D     21
     508                       1       1                               0D     22
     508      13                                                00010000D     23
     508                       1       1                               0D     24
     508      14                                                00010000D     25
     508                       2       1                               0D     26
     508      16                                                00010000D     27
     508                       2       1                               0D     28
     508      18                                                00010000D     29
     508                       1       1                               0D     30
     126      19                                                00010000D     31
     126       0               6       0                               0D     32
     126      25                                                00010000D     33
     126       0               7       0                               0D     34
     126      32                                                00010000D     35
     126       0               6       0                               0D     36
     126      38                                                00010000D     37
     126       0               7       0                               0D     38
     126      45                                                00010000D     39
     126       0               3       0                               0D     40
     126      48                                                00010000D     41
     126       0               6       0                               0D     42
     126      54                                                00010000D     43
     126       0               7       0                               0D     44
     126      61                                                00010000D     45
     126       0               8       0                               0D     46
     126      69                                                00010000D     47
     126       0               8       0                               0D     48
     126      77                                                00010000D     49
     126       0               4       0                               0D     50
     126      81                                                00010000D     51
     126       0               8       0                               0D     52
     126      89                                                00010000D     53
     126       0               9       0                               0D     54
     126      98                                                00010000D     55
     126       0               4       0                               0D     56
     128     102                                                00010000D     57
     128       0     -75       4       0                               0D     58
     128     106                                                00010000D     59
     128       0     -75      14       0                               0D     60
     128     120                                                00010000D     61
     128       0     -75       4       0                               0D     62
     128     124                                                00010000D     63
     128       0     -75      16       0                               0D     64
     128     140                                                00010000D     65
     128       0     -75      19       0                               0D     66
     128     159                                                00010000D     67
     128       0     -75       3       0                               0D     68
     502     162                                                00010000D     69
     502                       4       1                               0D     70
     504     166                                                00010001D     71
     504                       3       1                               0D     72
     406     169                                                00000000D     73
     406                       1      15                               0D     74
     314     170                                                00000200D     75
     314                       1       0                               0D     76
186,3,1,0,0,1,73;                                                      1P      1
514,6,5,1,7,1,9,1,11,1,13,1,15,1;                                      3P      2
510,57,1,1,17;                                                         5P      3
510,59,1,1,19;                                                         7P      4
510,61,2,1,21,23;                                                      9P      5
510,63,1,1,25;                                                        11P      6
510,65,1,1,27;                                                        13P      7
510,67,1,1,29;                                                        15P      8
508,2,0,71,1,0,0,0,71,2,0,0;                                          17P      9
508,6,0,71,3,0,0,0,71,4,0,0,0,71,5,1,0,0,71,2,1,0,0,71,1,1,0,0,       19P     10
71,5,0,0;                                                             19P     11
508,2,0,71,6,0,0,0,71,7,0,0;                                          21P     12
508,2,0,71,3,1,0,0,71,4,1,0;                                          23P     13
508,6,0,71,8,0,0,0,71,9,0,0,0,71,10,1,0,0,71,7,1,0,0,71,6,1,0,0,      25P     14
71,10,0,0;                                                            25P     15
508,6,0,71,11,0,0,0,71,12,0,0,0,71,13,1,0,0,71,9,1,0,0,71,8,1,0,      27P     16
0,71,13,0,0;                                                          27P     17
508,2,0,71,11,1,0,0,71,12,1,0;                                        29P     18
126,4,2,0,0,0,0,1.5707963267949,1.5707963267949,1.5707963267949,      31P     19
3.14159265358979,3.14159265358979,4.71238898038469,                   31P     20
4.71238898038469,4.71238898038469,1.,0.707106781186548,1.,            31P     21
0.707106781186548,1.,-13.,17.5,-1.07156594925393D-15,-13.,17.5,       31P     22
17.5,-13.,2.14313189850787D-15,17.5,-13.,-17.5,17.5,-13.,-17.5,       31P     23
3.2146978477618D-15,1.5707963267949,4.71238898038469,0.,0.,0.;        31P     24
126,4,2,0,0,0,0,4.71238898038469,4.71238898038469,                    33P     25
4.71238898038469,6.28318530717959,6.28318530717959,                   33P     26
7.85398163397448,7.85398163397448,7.85398163397448,1.,                33P     27
0.707106781186547,1.,0.707106781186547,1.,-13.,-17.5,                 33P     28
3.2146978477618D-15,-13.,-17.5,-17.5,-13.,-4.28626379701573D-15,      33P     29
-17.5,-13.,17.5,-17.5,-13.,17.5,-5.35782974626967D-15,                33P     30
4.71238898038469,7.85398163397448,0.,0.,0.;                           33P     31
126,4,2,0,0,0,0,1.5707963267949,1.5707963267949,1.5707963267949,      35P     32
3.14159265358979,3.14159265358979,4.71238898038469,                   35P     33
4.71238898038469,4.71238898038469,1.,0.707106781186548,1.,            35P     34
0.707106781186548,1.,-10.,17.5,-1.07156594925393D-15,-10.,17.5,       35P     35
17.5,-10.,2.14313189850787D-15,17.5,-10.,-17.5,17.5,-10.,-17.5,       35P     36
3.2146978477618D-15,1.5707963267949,4.71238898038469,0.,0.,0.;        35P     37
126,4,2,0,0,0,0,4.71238898038469,4.71238898038469,                    37P     38
4.71238898038469,6.28318530717959,6.28318530717959,                   37P     39
7.85398163397448,7.85398163397448,7.85398163397448,1.,                37P     40
0.707106781186548,1.,0.707106781186547,1.,-10.,-17.5,                 37P     41
3.2146978477618D-15,-10.,-17.5,-17.5,-10.,-4.28626379701573D-15,      37P     42
-17.5,-10.,17.5,-17.5,-10.,17.5,-5.35782974626967D-15,                37P     43
4.71238898038469,7.85398163397448,0.,0.,0.;                           37P     44
126,1,1,0,0,1,0,-0.0857142857142858,-0.0857142857142858,              39P     45
0.0857142857142857,0.0857142857142857,1.,1.,-10.,-17.5,0.,-13.,       39P     46
-17.5,0.,-0.0857142857142858,0.0857142857142857,0.,0.,0.;             39P     47
126,4,2,0,0,0,0,1.5707963267949,1.5707963267949,1.5707963267949,      41P     48
3.14159265358979,3.14159265358979,4.71238898038469,                   41P     49
4.71238898038469,4.71238898038469,1.,0.707106781186547,1.,            41P     50
0.707106781186548,1.,-10.,22.,-1.34711147906209D-15,-10.,22.,         41P     51
22.,-10.,2.69422295812418D-15,22.,-10.,-22.,22.,-10.,-22.,            41P     52
4.04133443718626D-15,1.5707963267949,4.71238898038469,0.,0.,0.;       41P     53
126,4,2,0,0,0,0,4.71238898038469,4.71238898038469,                    43P     54
4.71238898038469,6.28318530717959,6.28318530717959,                   43P     55
7.85398163397448,7.85398163397448,7.85398163397448,1.,                43P     56
0.707106781186548,1.,0.707106781186548,1.,-10.,-22.,                  43P     57
4.04133443718626D-15,-10.,-22.,-22.,-10.,-5.38844591624835D-15,       43P     58
-22.,-10.,22.,-22.,-10.,22.,-6.73555739531044D-15,                    43P     59
4.71238898038469,7.85398163397448,0.,0.,0.;                           43P     60
126,4,2,0,0,0,0,1.5707963267949,1.5707963267949,1.5707963267949,      45P     61
3.14159265358979,3.14159265358979,4.71238898038469,                   45P     62
4.71238898038469,4.71238898038469,1.,0.707106781186548,1.,            45P     63
0.707106781186548,1.,-1.59697718688949,19.46,                         45P     64
-1.19158133557037D-15,-1.59697718688949,19.46,19.46,                  45P     65
-1.59697718688949,2.38316267114075D-15,19.46,-1.59697718688949,       45P     66
-19.46,19.46,-1.59697718688949,-19.46,3.57474400671112D-15,           45P     67
1.5707963267949,4.71238898038469,0.,0.,0.;                            45P     68
126,4,2,0,0,0,0,4.71238898038469,4.71238898038469,                    47P     69
4.71238898038469,6.28318530717959,6.28318530717959,                   47P     70
7.85398163397448,7.85398163397448,7.85398163397448,1.,                47P     71
0.707106781186548,1.,0.707106781186548,1.,-1.59697718688949,          47P     72
-19.46,3.57474400671112D-15,-1.59697718688949,-19.46,-19.46,          47P     73
-1.59697718688949,-4.7663253422815D-15,-19.46,-1.59697718688949,      47P     74
19.46,-19.46,-1.59697718688949,19.46,-5.95790667785187D-15,           47P     75
4.71238898038469,7.85398163397448,0.,0.,0.;                           47P     76
126,1,1,0,0,1,0,-0.211734655193241,-0.211734655193241,                49P     77
0.211734655193241,0.211734655193241,1.,1.,-1.59697718688949,          49P     78
-19.46,0.,-10.,-22.,0.,-0.211734655193241,0.211734655193241,0.,       49P     79
0.,0.;                                                                49P     80
126,4,2,0,0,0,0,1.5707963267949,1.5707963267949,1.5707963267949,      51P     81
3.14159265358979,3.14159265358979,4.71238898038469,                   51P     82
4.71238898038469,4.71238898038469,1.,0.707106781186548,1.,            51P     83
0.707106781186548,1.,-2.22044604925031D-15,13.5,                      51P     84
-8.26636589424463D-16,-2.22044604925031D-15,13.5,13.5,                51P     85
-2.22044604925031D-15,1.65327317884893D-15,13.5,                      51P     86
-2.22044604925031D-15,-13.5,13.5,-2.22044604925031D-15,-13.5,         51P     87
2.47990976827339D-15,1.5707963267949,4.71238898038469,0.,0.,0.;       51P     88
126,4,2,0,0,0,0,4.71238898038469,4.71238898038469,                    53P     89
4.71238898038469,6.28318530717959,6.28318530717959,                   53P     90
7.85398163397448,7.85398163397448,7.85398163397448,1.,                53P     91
0.707106781186547,1.,0.707106781186547,1.,-2.22044604925031D-15,      53P     92
-13.5,2.47990976827339D-15,-2.22044604925031D-15,-13.5,-13.5,         53P     93
-2.22044604925031D-15,-3.30654635769785D-15,-13.5,                    53P     94
-2.22044604925031D-15,13.5,-13.5,-2.22044604925031D-15,13.5,          53P     95
-4.13318294712232D-15,4.71238898038469,7.85398163397448,0.,0.,        53P     96
0.;                                                                   53P     97
126,1,1,0,0,1,0,-0.18720406660328,-0.18720406660328,                  55P     98
0.18720406660328,0.18720406660328,1.,1.,-1.66533453693773D-15,        55P     99
-13.5,0.,-1.5969771868895,-19.46,0.,-0.18720406660328,                55P    100
0.18720406660328,0.,0.,0.;                                            55P    101
128,1,1,1,1,0,0,1,0,0,-1.75,-1.75,1.75,1.75,-3.5,-3.5,                57P    102
2.80535309501094D-17,2.80535309501094D-17,1.,1.,1.,1.,-13.,           57P    103
-17.5,-17.5,-13.,-17.5,17.5,-13.,17.5,-17.5,-13.,17.5,17.5,           57P    104
-1.75,1.75,-3.5,2.80535309501094D-17;                                 57P    105
128,1,8,1,2,0,1,0,0,0,-0.0857142857142857,-0.0857142857142857,        59P    106
0.0857142857142858,0.0857142857142858,-3.14159265358979,              59P    107
-3.14159265358979,-3.14159265358979,-1.5707963267949,                 59P    108
-1.5707963267949,0.,0.,1.5707963267949,1.5707963267949,               59P    109
3.14159265358979,3.14159265358979,3.14159265358979,1.,1.,             59P    110
0.707106781186548,0.707106781186548,1.,1.,0.707106781186548,          59P    111
0.707106781186548,1.,1.,0.707106781186548,0.707106781186548,1.,       59P    112
1.,0.707106781186548,0.707106781186548,1.,1.,-10.,-17.5,0.,-13.,      59P    113
-17.5,0.,-10.,-17.5,-17.5,-13.,-17.5,-17.5,-10.,0.,-17.5,-13.,        59P    114
0.,-17.5,-10.,17.5,-17.5,-13.,17.5,-17.5,-10.,17.5,0.,-13.,17.5,      59P    115
0.,-10.,17.5,17.5,-13.,17.5,17.5,-10.,0.,17.5,-13.,0.,17.5,-10.,      59P    116
-17.5,17.5,-13.,-17.5,17.5,-10.,-17.5,0.,-13.,-17.5,0.,               59P    117
-0.0857142857142857,0.0857142857142858,-3.14159265358979,             59P    118
3.14159265358979;                                                     59P    119
128,1,1,1,1,0,0,1,0,0,-2.2,-2.2,2.2,2.2,-4.4,-4.4,                    61P    120
3.52672960515661D-17,3.52672960515661D-17,1.,1.,1.,1.,-10.,-22.,      61P    121
-22.,-10.,-22.,22.,-10.,22.,-22.,-10.,22.,22.,-2.2,2.2,-4.4,          61P    122
3.52672960515661D-17;                                                 61P    123
128,1,8,1,2,0,1,0,0,0,-0.211734655193241,-0.211734655193241,          63P    124
0.211734655193241,0.211734655193241,-3.14159265358979,                63P    125
-3.14159265358979,-3.14159265358979,-1.5707963267949,                 63P    126
-1.5707963267949,0.,0.,1.5707963267949,1.5707963267949,               63P    127
3.14159265358979,3.14159265358979,3.14159265358979,1.,1.,             63P    128
0.707106781186548,0.707106781186548,1.,1.,0.707106781186548,          63P    129
0.707106781186548,1.,1.,0.707106781186548,0.707106781186548,1.,       63P    130
1.,0.707106781186548,0.707106781186548,1.,1.,-1.59697718688949,       63P    131
-19.46,0.,-10.,-22.,0.,-1.59697718688949,-19.46,-19.46,-10.,          63P    132
-22.,-22.,-1.59697718688949,0.,-19.46,-10.,0.,-22.,                   63P    133
-1.59697718688949,19.46,-19.46,-10.,22.,-22.,-1.59697718688949,       63P    134
19.46,0.,-10.,22.,0.,-1.59697718688949,19.46,19.46,-10.,22.,22.,      63P    135
-1.59697718688949,0.,19.46,-10.,0.,22.,-1.59697718688949,-19.46,      63P    136
19.46,-10.,-22.,22.,-1.59697718688949,-19.46,0.,-10.,-22.,0.,         63P    137
-0.211734655193241,0.211734655193241,-3.14159265358979,               63P    138
3.14159265358979;                                                     63P    139
128,1,8,1,2,0,1,0,0,0,-0.18720406660328,-0.18720406660328,            65P    140
0.18720406660328,0.18720406660328,-3.14159265358979,                  65P    141
-3.14159265358979,-3.14159265358979,-1.5707963267949,                 65P    142
-1.5707963267949,0.,0.,1.5707963267949,1.5707963267949,               65P    143
3.14159265358979,3.14159265358979,3.14159265358979,1.,1.,             65P    144
0.707106781186548,0.707106781186548,1.,1.,0.707106781186548,          65P    145
0.707106781186548,1.,1.,0.707106781186548,0.707106781186548,1.,       65P    146
1.,0.707106781186548,0.707106781186548,1.,1.,                         65P    147
-1.66533453693773D-15,-13.5,0.,-1.5969771868895,-19.46,0.,            65P    148
-1.66533453693773D-15,-13.5,-13.5,-1.5969771868895,-19.46,            65P    149
-19.46,-1.66533453693773D-15,0.,-13.5,-1.5969771868895,0.,            65P    150
-19.46,-1.66533453693773D-15,13.5,-13.5,-1.5969771868895,19.46,       65P    151
-19.46,-1.66533453693773D-15,13.5,0.,-1.5969771868895,19.46,0.,       65P    152
-1.66533453693773D-15,13.5,13.5,-1.5969771868895,19.46,19.46,         65P    153
-1.66533453693773D-15,0.,13.5,-1.5969771868895,0.,19.46,              65P    154
-1.66533453693773D-15,-13.5,13.5,-1.5969771868895,-19.46,19.46,       65P    155
-1.66533453693773D-15,-13.5,0.,-1.5969771868895,-19.46,0.,            65P    156
-0.18720406660328,0.18720406660328,-3.14159265358979,                 65P    157
3.14159265358979;                                                     65P    158
128,1,1,1,1,0,0,1,0,0,-1.35,-1.35,1.35,1.35,-1.35,-1.35,1.35,         67P    159
1.35,1.,1.,1.,1.,0.,-13.5,13.5,0.,-13.5,-13.5,0.,13.5,13.5,0.,        67P    160
13.5,-13.5,-1.35,1.35,-1.35,1.35;                                     67P    161
502,10,-13.,17.5,0.,-13.,-17.5,0.,-10.,17.5,0.,-10.,-17.5,0.,         69P    162
-10.,22.,0.,-10.,-22.,0.,-1.59697718688949,19.46,0.,                  69P    163
-1.59697718688949,-19.46,0.,-2.22044604925031D-15,13.5,0.,            69P    164
-1.66533453693773D-15,-13.5,0.;                                       69P    165
504,13,31,69,1,69,2,33,69,2,69,1,35,69,3,69,4,37,69,4,69,3,39,        71P    166
69,4,69,2,41,69,5,69,6,43,69,6,69,5,45,69,7,69,8,47,69,8,69,7,        71P    167
49,69,8,69,6,51,69,9,69,10,53,69,10,69,9,55,69,10,69,8;               71P    168
406,1,8HTěleso1;                                                     73P    169
314,74.5098039215686,73.7254901960784,72.9411764705882,;              75P    170
S      1G      4D     76P    170                                        T      1
