                                                                        S      1
,,42HKuželové hrdlo KH zaslepovací - dle DIN,11H20210150000,22HAutodeG      1
sk Inventor 2015,7Hunknown,32,38,7,99,15,,1.,2,2HMM,1,0.08,15H20160301.1G      2
13926,0.01,10000.,14HStruska Martin,40HBupospol, Armaturka Koukol, spol.G      3
 s r.o.,11,0,15H20140815.043234;                                        G      4
     186       1                                                00000000D      1
     186             -75       1       0                               0D      2
     514       2                                                00010000D      3
     514                       1       1                               0D      4
     510       3                                                00010000D      5
     510             -75       1       1                               0D      6
     510       4                                                00010000D      7
     510             -75       1       1                               0D      8
     510       5                                                00010000D      9
     510             -75       1       1                               0D     10
     510       6                                                00010000D     11
     510             -75       1       1                               0D     12
     510       7                                                00010000D     13
     510             -75       1       1                               0D     14
     510       8                                                00010000D     15
     510             -75       1       1                               0D     16
     508       9                                                00010000D     17
     508                       1       1                               0D     18
     508      10                                                00010000D     19
     508                       2       1                               0D     20
     508      12                                                00010000D     21
     508                       1       1                               0D     22
     508      13                                                00010000D     23
     508                       1       1                               0D     24
     508      14                                                00010000D     25
     508                       2       1                               0D     26
     508      16                                                00010000D     27
     508                       2       1                               0D     28
     508      18                                                00010000D     29
     508                       1       1                               0D     30
     126      19                                                00010000D     31
     126       0               6       0                               0D     32
     126      25                                                00010000D     33
     126       0               8       0                               0D     34
     126      33                                                00010000D     35
     126       0               6       0                               0D     36
     126      39                                                00010000D     37
     126       0               8       0                               0D     38
     126      47                                                00010000D     39
     126       0               3       0                               0D     40
     126      50                                                00010000D     41
     126       0               6       0                               0D     42
     126      56                                                00010000D     43
     126       0               7       0                               0D     44
     126      63                                                00010000D     45
     126       0               8       0                               0D     46
     126      71                                                00010000D     47
     126       0               9       0                               0D     48
     126      80                                                00010000D     49
     126       0               4       0                               0D     50
     126      84                                                00010000D     51
     126       0               8       0                               0D     52
     126      92                                                00010000D     53
     126       0               9       0                               0D     54
     126     101                                                00010000D     55
     126       0               4       0                               0D     56
     128     105                                                00010000D     57
     128       0     -75       4       0                               0D     58
     128     109                                                00010000D     59
     128       0     -75      14       0                               0D     60
     128     123                                                00010000D     61
     128       0     -75       4       0                               0D     62
     128     127                                                00010000D     63
     128       0     -75      16       0                               0D     64
     128     143                                                00010000D     65
     128       0     -75      19       0                               0D     66
     128     162                                                00010000D     67
     128       0     -75       3       0                               0D     68
     502     165                                                00010000D     69
     502                       4       1                               0D     70
     504     169                                                00010001D     71
     504                       3       1                               0D     72
     406     172                                                00000000D     73
     406                       1      15                               0D     74
     314     173                                                00000200D     75
     314                       1       0                               0D     76
186,3,1,0,0,1,73;                                                      1P      1
514,6,5,1,7,1,9,1,11,1,13,1,15,1;                                      3P      2
510,57,1,1,17;                                                         5P      3
510,59,1,1,19;                                                         7P      4
510,61,2,1,21,23;                                                      9P      5
510,63,1,1,25;                                                        11P      6
510,65,1,1,27;                                                        13P      7
510,67,1,1,29;                                                        15P      8
508,2,0,71,1,0,0,0,71,2,0,0;                                          17P      9
508,6,0,71,3,0,0,0,71,4,0,0,0,71,5,1,0,0,71,2,1,0,0,71,1,1,0,0,       19P     10
71,5,0,0;                                                             19P     11
508,2,0,71,6,0,0,0,71,7,0,0;                                          21P     12
508,2,0,71,3,1,0,0,71,4,1,0;                                          23P     13
508,6,0,71,8,0,0,0,71,9,0,0,0,71,10,1,0,0,71,7,1,0,0,71,6,1,0,0,      25P     14
71,10,0,0;                                                            25P     15
508,6,0,71,11,0,0,0,71,12,0,0,0,71,13,1,0,0,71,9,1,0,0,71,8,1,0,      27P     16
0,71,13,0,0;                                                          27P     17
508,2,0,71,11,1,0,0,71,12,1,0;                                        29P     18
126,4,2,0,0,0,0,1.5707963267949,1.5707963267949,1.5707963267949,      31P     19
3.14159265358979,3.14159265358979,4.71238898038469,                   31P     20
4.71238898038469,4.71238898038469,1.,0.707106781186548,1.,            31P     21
0.707106781186548,1.,-24.,81.5,-4.99043570652547D-15,-24.,81.5,       31P     22
81.5,-24.,9.98087141305093D-15,81.5,-24.,-81.5,81.5,-24.,-81.5,       31P     23
1.49713071195764D-14,1.5707963267949,4.71238898038469,0.,0.,0.;       31P     24
126,4,2,0,0,0,0,4.71238898038469,4.71238898038469,                    33P     25
4.71238898038469,6.28318530717959,6.28318530717959,                   33P     26
7.85398163397448,7.85398163397448,7.85398163397448,1.,                33P     27
0.707106781186547,1.,0.707106781186547,1.,-24.,-81.5,                 33P     28
1.49713071195764D-14,-24.,-81.5,-81.5,-24.,                           33P     29
-1.99617428261019D-14,-81.5,-24.,81.5,-81.5,-24.,81.5,                33P     30
-2.49521785326273D-14,4.71238898038469,7.85398163397448,0.,0.,        33P     31
0.;                                                                   33P     32
126,4,2,0,0,0,0,1.5707963267949,1.5707963267949,1.5707963267949,      35P     33
3.14159265358979,3.14159265358979,4.71238898038469,                   35P     34
4.71238898038469,4.71238898038469,1.,0.707106781186548,1.,            35P     35
0.707106781186548,1.,-18.,81.5,-4.99043570652547D-15,-18.,81.5,       35P     36
81.5,-18.,9.98087141305093D-15,81.5,-18.,-81.5,81.5,-18.,-81.5,       35P     37
1.49713071195764D-14,1.5707963267949,4.71238898038469,0.,0.,0.;       35P     38
126,4,2,0,0,0,0,4.71238898038469,4.71238898038469,                    37P     39
4.71238898038469,6.28318530717959,6.28318530717959,                   37P     40
7.85398163397448,7.85398163397448,7.85398163397448,1.,                37P     41
0.707106781186547,1.,0.707106781186547,1.,-18.,-81.5,                 37P     42
1.49713071195764D-14,-18.,-81.5,-81.5,-18.,                           37P     43
-1.99617428261019D-14,-81.5,-18.,81.5,-81.5,-18.,81.5,                37P     44
-2.49521785326273D-14,4.71238898038469,7.85398163397448,0.,0.,        37P     45
0.;                                                                   37P     46
126,1,1,0,0,1,0,-0.0368098159509203,-0.0368098159509203,              39P     47
0.0368098159509202,0.0368098159509202,1.,1.,-18.,-81.5,0.,-24.,       39P     48
-81.5,0.,-0.0368098159509203,0.0368098159509202,0.,0.,0.;             39P     49
126,4,2,0,0,0,0,1.5707963267949,1.5707963267949,1.5707963267949,      41P     50
3.14159265358979,3.14159265358979,4.71238898038469,                   41P     51
4.71238898038469,4.71238898038469,1.,0.707106781186548,1.,            41P     52
0.707106781186548,1.,-18.,88.,-5.38844591624836D-15,-18.,88.,         41P     53
88.,-18.,1.07768918324967D-14,88.,-18.,-88.,88.,-18.,-88.,            41P     54
1.61653377487451D-14,1.5707963267949,4.71238898038469,0.,0.,0.;       41P     55
126,4,2,0,0,0,0,4.71238898038469,4.71238898038469,                    43P     56
4.71238898038469,6.28318530717959,6.28318530717959,                   43P     57
7.85398163397448,7.85398163397448,7.85398163397448,1.,                43P     58
0.707106781186548,1.,0.707106781186548,1.,-18.,-88.,                  43P     59
1.61653377487451D-14,-18.,-88.,-88.,-18.,-2.15537836649934D-14,       43P     60
-88.,-18.,88.,-88.,-18.,88.,-2.69422295812418D-14,                    43P     61
4.71238898038469,7.85398163397448,0.,0.,0.;                           43P     62
126,4,2,0,0,0,0,1.5707963267949,1.5707963267949,1.5707963267949,      45P     63
3.14159265358979,3.14159265358979,4.71238898038469,                   45P     64
4.71238898038469,4.71238898038469,1.,0.707106781186548,1.,            45P     65
0.707106781186548,1.,-2.10608065250864,83.36,                         45P     66
-5.10432785884617D-15,-2.10608065250864,83.36,83.36,                  45P     67
-2.10608065250864,1.02086557176923D-14,83.36,-2.10608065250864,       45P     68
-83.36,83.36,-2.10608065250864,-83.36,1.53129835765385D-14,           45P     69
1.5707963267949,4.71238898038469,0.,0.,0.;                            45P     70
126,4,2,0,0,0,0,4.71238898038469,4.71238898038469,                    47P     71
4.71238898038469,6.28318530717959,6.28318530717959,                   47P     72
7.85398163397448,7.85398163397448,7.85398163397448,1.,                47P     73
0.707106781186548,1.,0.707106781186547,1.,-2.10608065250864,          47P     74
-83.36,1.53129835765385D-14,-2.10608065250864,-83.36,-83.36,          47P     75
-2.10608065250864,-2.04173114353847D-14,-83.36,                       47P     76
-2.10608065250864,83.36,-83.36,-2.10608065250864,83.36,               47P     77
-2.55216392942308D-14,4.71238898038469,7.85398163397448,0.,0.,        47P     78
0.;                                                                   47P     79
126,1,1,0,0,1,0,-0.096623267284434,-0.096623267284434,                49P     80
0.096623267284434,0.096623267284434,1.,1.,-2.10608065250863,          49P     81
-83.36,0.,-18.,-88.,0.,-0.096623267284434,0.096623267284434,0.,       49P     82
0.,0.;                                                                49P     83
126,4,2,0,0,0,0,1.5707963267949,1.5707963267949,1.5707963267949,      51P     84
3.14159265358979,3.14159265358979,4.71238898038469,                   51P     85
4.71238898038469,4.71238898038469,1.,0.707106781186548,1.,            51P     86
0.707106781186548,1.,-8.88178419700125D-15,75.5,                      51P     87
-4.62304166678126D-15,-8.88178419700125D-15,75.5,75.5,                51P     88
-8.88178419700125D-15,9.24608333356252D-15,75.5,                      51P     89
-8.88178419700125D-15,-75.5,75.5,-8.88178419700125D-15,-75.5,         51P     90
1.38691250003438D-14,1.5707963267949,4.71238898038469,0.,0.,0.;       51P     91
126,4,2,0,0,0,0,4.71238898038469,4.71238898038469,                    53P     92
4.71238898038469,6.28318530717959,6.28318530717959,                   53P     93
7.85398163397448,7.85398163397448,7.85398163397448,1.,                53P     94
0.707106781186548,1.,0.707106781186548,1.,-8.88178419700125D-15,      53P     95
-75.5,1.38691250003438D-14,-8.88178419700125D-15,-75.5,-75.5,         53P     96
-8.88178419700125D-15,-1.8492166667125D-14,-75.5,                     53P     97
-8.88178419700125D-15,75.5,-75.5,-8.88178419700125D-15,75.5,          53P     98
-2.31152083339063D-14,4.71238898038469,7.85398163397448,0.,0.,        53P     99
0.;                                                                   53P    100
126,1,1,0,0,1,0,-0.0512229055647945,-0.0512229055647945,              55P    101
0.0512229055647948,0.0512229055647948,1.,1.,                          55P    102
-5.68989300120393D-15,-75.5,0.,-2.10608065250864,-83.36,0.,           55P    103
-0.0512229055647945,0.0512229055647948,0.,0.,0.;                      55P    104
128,1,1,1,1,0,0,1,0,0,-8.15,-8.15,8.15,8.15,-16.3,-16.3,              57P    105
1.30649301281938D-16,1.30649301281938D-16,1.,1.,1.,1.,-24.,           57P    106
-81.5,-81.5,-24.,-81.5,81.5,-24.,81.5,-81.5,-24.,81.5,81.5,           57P    107
-8.15,8.15,-16.3,1.30649301281938D-16;                                57P    108
128,1,8,1,2,0,1,0,0,0,-0.0368098159509202,-0.0368098159509202,        59P    109
0.0368098159509203,0.0368098159509203,-3.14159265358979,              59P    110
-3.14159265358979,-3.14159265358979,-1.5707963267949,                 59P    111
-1.5707963267949,0.,0.,1.5707963267949,1.5707963267949,               59P    112
3.14159265358979,3.14159265358979,3.14159265358979,1.,1.,             59P    113
0.707106781186548,0.707106781186548,1.,1.,0.707106781186548,          59P    114
0.707106781186548,1.,1.,0.707106781186548,0.707106781186548,1.,       59P    115
1.,0.707106781186548,0.707106781186548,1.,1.,-18.,-81.5,0.,-24.,      59P    116
-81.5,0.,-18.,-81.5,-81.5,-24.,-81.5,-81.5,-18.,0.,-81.5,-24.,        59P    117
0.,-81.5,-18.,81.5,-81.5,-24.,81.5,-81.5,-18.,81.5,0.,-24.,81.5,      59P    118
0.,-18.,81.5,81.5,-24.,81.5,81.5,-18.,0.,81.5,-24.,0.,81.5,-18.,      59P    119
-81.5,81.5,-24.,-81.5,81.5,-18.,-81.5,0.,-24.,-81.5,0.,               59P    120
-0.0368098159509202,0.0368098159509203,-3.14159265358979,             59P    121
3.14159265358979;                                                     59P    122
128,1,1,1,1,0,0,1,0,0,-8.8,-8.8,8.8,8.8,-17.6,-17.6,                  61P    123
1.41069184206265D-16,1.41069184206265D-16,1.,1.,1.,1.,-18.,-88.,      61P    124
-88.,-18.,-88.,88.,-18.,88.,-88.,-18.,88.,88.,-8.8,8.8,-17.6,         61P    125
1.41069184206265D-16;                                                 61P    126
128,1,8,1,2,0,1,0,0,0,-0.096623267284434,-0.096623267284434,          63P    127
0.096623267284434,0.096623267284434,-3.14159265358979,                63P    128
-3.14159265358979,-3.14159265358979,-1.5707963267949,                 63P    129
-1.5707963267949,0.,0.,1.5707963267949,1.5707963267949,               63P    130
3.14159265358979,3.14159265358979,3.14159265358979,1.,1.,             63P    131
0.707106781186548,0.707106781186548,1.,1.,0.707106781186548,          63P    132
0.707106781186548,1.,1.,0.707106781186548,0.707106781186548,1.,       63P    133
1.,0.707106781186548,0.707106781186548,1.,1.,-2.10608065250863,       63P    134
-83.36,0.,-18.,-88.,0.,-2.10608065250863,-83.36,-83.36,-18.,          63P    135
-88.,-88.,-2.10608065250863,0.,-83.36,-18.,0.,-88.,                   63P    136
-2.10608065250863,83.36,-83.36,-18.,88.,-88.,-2.10608065250863,       63P    137
83.36,0.,-18.,88.,0.,-2.10608065250863,83.36,83.36,-18.,88.,88.,      63P    138
-2.10608065250863,0.,83.36,-18.,0.,88.,-2.10608065250863,-83.36,      63P    139
83.36,-18.,-88.,88.,-2.10608065250863,-83.36,0.,-18.,-88.,0.,         63P    140
-0.096623267284434,0.096623267284434,-3.14159265358979,               63P    141
3.14159265358979;                                                     63P    142
128,1,8,1,2,0,1,0,0,0,-0.0512229055647948,-0.0512229055647948,        65P    143
0.0512229055647945,0.0512229055647945,-3.14159265358979,              65P    144
-3.14159265358979,-3.14159265358979,-1.5707963267949,                 65P    145
-1.5707963267949,0.,0.,1.5707963267949,1.5707963267949,               65P    146
3.14159265358979,3.14159265358979,3.14159265358979,1.,1.,             65P    147
0.707106781186548,0.707106781186548,1.,1.,0.707106781186548,          65P    148
0.707106781186548,1.,1.,0.707106781186548,0.707106781186548,1.,       65P    149
1.,0.707106781186548,0.707106781186548,1.,1.,                         65P    150
-5.68989300120393D-15,-75.5,0.,-2.10608065250864,-83.36,0.,           65P    151
-5.68989300120393D-15,-75.5,-75.5,-2.10608065250864,-83.36,           65P    152
-83.36,-5.68989300120393D-15,0.,-75.5,-2.10608065250864,0.,           65P    153
-83.36,-5.68989300120393D-15,75.5,-75.5,-2.10608065250864,83.36,      65P    154
-83.36,-5.68989300120393D-15,75.5,0.,-2.10608065250864,83.36,0.,      65P    155
-5.68989300120393D-15,75.5,75.5,-2.10608065250864,83.36,83.36,        65P    156
-5.68989300120393D-15,0.,75.5,-2.10608065250864,0.,83.36,             65P    157
-5.68989300120393D-15,-75.5,75.5,-2.10608065250864,-83.36,83.36,      65P    158
-5.68989300120393D-15,-75.5,0.,-2.10608065250864,-83.36,0.,           65P    159
-0.0512229055647948,0.0512229055647945,-3.14159265358979,             65P    160
3.14159265358979;                                                     65P    161
128,1,1,1,1,0,0,1,0,0,-7.55,-7.55,7.55,7.55,-7.55,-7.55,7.55,         67P    162
7.55,1.,1.,1.,1.,0.,-75.5,75.5,0.,-75.5,-75.5,0.,75.5,75.5,0.,        67P    163
75.5,-75.5,-7.55,7.55,-7.55,7.55;                                     67P    164
502,10,-24.,81.5,0.,-24.,-81.5,0.,-18.,81.5,0.,-18.,-81.5,0.,         69P    165
-18.,88.,0.,-18.,-88.,0.,-2.10608065250864,83.36,0.,                  69P    166
-2.10608065250863,-83.36,0.,-8.88178419700125D-15,75.5,0.,            69P    167
-5.68989300120393D-15,-75.5,0.;                                       69P    168
504,13,31,69,1,69,2,33,69,2,69,1,35,69,3,69,4,37,69,4,69,3,39,        71P    169
69,4,69,2,41,69,5,69,6,43,69,6,69,5,45,69,7,69,8,47,69,8,69,7,        71P    170
49,69,8,69,6,51,69,9,69,10,53,69,10,69,9,55,69,10,69,8;               71P    171
406,1,8HTěleso1;                                                     73P    172
314,74.5098039215686,73.7254901960784,72.9411764705882,;              75P    173
S      1G      4D     76P    173                                        T      1
