ISO-10303-21;
HEADER;
/* Generated by software containing ST-Developer
 * from STEP Tools, Inc. (www.steptools.com) 
 */

FILE_DESCRIPTION(
/* description */ ('Ku\X2\017E\X0\elov\X\E9 hrdlo KH zaslepovac\X\ED -
 dle DIN'),
/* implementation_level */ '2;1');

FILE_NAME(
/* name */ 
'C:\\Vault_Workspace\\DATA\\Katalog Bupospol\\2 Potrubn\X\ED d\X\EDly\\
2.0 \X2\0160\X0\rouben\X\ED\\20210\\20210\\20210020000.stp',
/* time_stamp */ '2016-01-11T09:03:48+01:00',
/* author */ ('Struska'),
/* organization */ ('Bupospol'),
/* preprocessor_version */ 'ST-DEVELOPER v15.6',
/* originating_system */ 'Autodesk Inventor 2015',
/* authorisation */ '');

FILE_SCHEMA (('CONFIG_CONTROL_DESIGN'));
ENDSEC;

DATA;
#10=MECHANICAL_DESIGN_GEOMETRIC_PRESENTATION_REPRESENTATION('',(#69,#67,
#65,#66,#71,#68,#70),#135);
#11=SHAPE_REPRESENTATION_RELATIONSHIP('SRR','None',#144,#12);
#12=ADVANCED_BREP_SHAPE_REPRESENTATION($,(#13),#134);
#13=MANIFOLD_SOLID_BREP('T\X2\011B\X0\leso1',#78);
#14=CONICAL_SURFACE('',#86,17.245,17.2783359985783);
#15=CONICAL_SURFACE('',#88,13.37,75.);
#16=FACE_BOUND('',#29,.T.);
#17=FACE_BOUND('',#31,.T.);
#18=FACE_BOUND('',#33,.T.);
#19=FACE_BOUND('',#35,.T.);
#20=CYLINDRICAL_SURFACE('',#82,15.);
#21=FACE_OUTER_BOUND('',#27,.T.);
#22=FACE_OUTER_BOUND('',#28,.T.);
#23=FACE_OUTER_BOUND('',#30,.T.);
#24=FACE_OUTER_BOUND('',#32,.T.);
#25=FACE_OUTER_BOUND('',#34,.T.);
#26=FACE_OUTER_BOUND('',#36,.T.);
#27=EDGE_LOOP('',(#52));
#28=EDGE_LOOP('',(#53));
#29=EDGE_LOOP('',(#54));
#30=EDGE_LOOP('',(#55));
#31=EDGE_LOOP('',(#56));
#32=EDGE_LOOP('',(#57));
#33=EDGE_LOOP('',(#58));
#34=EDGE_LOOP('',(#59));
#35=EDGE_LOOP('',(#60));
#36=EDGE_LOOP('',(#61));
#37=CIRCLE('',#81,15.);
#38=CIRCLE('',#83,15.);
#39=CIRCLE('',#85,18.25);
#40=CIRCLE('',#87,16.24);
#41=CIRCLE('',#89,10.5);
#42=VERTEX_POINT('',#117);
#43=VERTEX_POINT('',#120);
#44=VERTEX_POINT('',#123);
#45=VERTEX_POINT('',#126);
#46=VERTEX_POINT('',#129);
#47=EDGE_CURVE('',#42,#42,#37,.T.);
#48=EDGE_CURVE('',#43,#43,#38,.T.);
#49=EDGE_CURVE('',#44,#44,#39,.T.);
#50=EDGE_CURVE('',#45,#45,#40,.T.);
#51=EDGE_CURVE('',#46,#46,#41,.T.);
#52=ORIENTED_EDGE('',*,*,#47,.F.);
#53=ORIENTED_EDGE('',*,*,#48,.F.);
#54=ORIENTED_EDGE('',*,*,#47,.T.);
#55=ORIENTED_EDGE('',*,*,#49,.F.);
#56=ORIENTED_EDGE('',*,*,#48,.T.);
#57=ORIENTED_EDGE('',*,*,#50,.F.);
#58=ORIENTED_EDGE('',*,*,#49,.T.);
#59=ORIENTED_EDGE('',*,*,#51,.F.);
#60=ORIENTED_EDGE('',*,*,#50,.T.);
#61=ORIENTED_EDGE('',*,*,#51,.T.);
#62=PLANE('',#80);
#63=PLANE('',#84);
#64=PLANE('',#90);
#65=STYLED_ITEM('',(#153),#72);
#66=STYLED_ITEM('',(#153),#73);
#67=STYLED_ITEM('',(#153),#74);
#68=STYLED_ITEM('',(#153),#75);
#69=STYLED_ITEM('',(#153),#76);
#70=STYLED_ITEM('',(#153),#77);
#71=STYLED_ITEM('',(#153),#13);
#72=ADVANCED_FACE('',(#21),#62,.T.);
#73=ADVANCED_FACE('',(#22,#16),#20,.T.);
#74=ADVANCED_FACE('',(#23,#17),#63,.T.);
#75=ADVANCED_FACE('',(#24,#18),#14,.T.);
#76=ADVANCED_FACE('',(#25,#19),#15,.T.);
#77=ADVANCED_FACE('',(#26),#64,.T.);
#78=CLOSED_SHELL('',(#72,#73,#74,#75,#76,#77));
#79=AXIS2_PLACEMENT_3D('placement',#115,#91,#92);
#80=AXIS2_PLACEMENT_3D('',#116,#93,#94);
#81=AXIS2_PLACEMENT_3D('',#118,#95,#96);
#82=AXIS2_PLACEMENT_3D('',#119,#97,#98);
#83=AXIS2_PLACEMENT_3D('',#121,#99,#100);
#84=AXIS2_PLACEMENT_3D('',#122,#101,#102);
#85=AXIS2_PLACEMENT_3D('',#124,#103,#104);
#86=AXIS2_PLACEMENT_3D('',#125,#105,#106);
#87=AXIS2_PLACEMENT_3D('',#127,#107,#108);
#88=AXIS2_PLACEMENT_3D('',#128,#109,#110);
#89=AXIS2_PLACEMENT_3D('',#130,#111,#112);
#90=AXIS2_PLACEMENT_3D('',#131,#113,#114);
#91=DIRECTION('axis',(0.,0.,1.));
#92=DIRECTION('refdir',(1.,0.,0.));
#93=DIRECTION('center_axis',(-1.,0.,0.));
#94=DIRECTION('ref_axis',(0.,0.,1.));
#95=DIRECTION('center_axis',(1.,0.,0.));
#96=DIRECTION('ref_axis',(0.,0.,-1.));
#97=DIRECTION('center_axis',(1.,0.,0.));
#98=DIRECTION('ref_axis',(0.,1.,0.));
#99=DIRECTION('center_axis',(1.,0.,0.));
#100=DIRECTION('ref_axis',(0.,0.,-1.));
#101=DIRECTION('center_axis',(-1.,0.,0.));
#102=DIRECTION('ref_axis',(0.,0.,1.));
#103=DIRECTION('center_axis',(1.,0.,0.));
#104=DIRECTION('ref_axis',(0.,0.,-1.));
#105=DIRECTION('center_axis',(-1.,0.,0.));
#106=DIRECTION('ref_axis',(0.,1.,0.));
#107=DIRECTION('center_axis',(1.,0.,0.));
#108=DIRECTION('ref_axis',(0.,0.,-1.));
#109=DIRECTION('center_axis',(-1.,0.,0.));
#110=DIRECTION('ref_axis',(0.,1.,0.));
#111=DIRECTION('center_axis',(1.,0.,0.));
#112=DIRECTION('ref_axis',(0.,0.,-1.));
#113=DIRECTION('center_axis',(1.,0.,0.));
#114=DIRECTION('ref_axis',(0.,0.,-1.));
#115=CARTESIAN_POINT('',(0.,0.,0.));
#116=CARTESIAN_POINT('Origin',(-11.,15.,0.));
#117=CARTESIAN_POINT('',(-11.,15.,0.));
#118=CARTESIAN_POINT('Origin',(-11.,0.,0.));
#119=CARTESIAN_POINT('Origin',(-9.50000000000001,0.,0.));
#120=CARTESIAN_POINT('',(-8.00000000000001,15.,0.));
#121=CARTESIAN_POINT('Origin',(-8.00000000000001,0.,0.));
#122=CARTESIAN_POINT('Origin',(-8.00000000000001,18.25,0.));
#123=CARTESIAN_POINT('',(-8.00000000000001,18.25,0.));
#124=CARTESIAN_POINT('Origin',(-8.00000000000001,0.,0.));
#125=CARTESIAN_POINT('Origin',(-4.76901418227733,0.,0.));
#126=CARTESIAN_POINT('',(-1.53802836455465,16.24,0.));
#127=CARTESIAN_POINT('Origin',(-1.53802836455465,0.,0.));
#128=CARTESIAN_POINT('Origin',(-0.769014182277326,0.,0.));
#129=CARTESIAN_POINT('',(-2.22044604925031E-15,10.5,0.));
#130=CARTESIAN_POINT('Origin',(-2.22044604925031E-15,0.,0.));
#131=CARTESIAN_POINT('Origin',(0.,0.,0.));
#132=UNCERTAINTY_MEASURE_WITH_UNIT(LENGTH_MEASURE(0.01),#136,
'DISTANCE_ACCURACY_VALUE',
'Maximum model space distance between geometric entities at asserted c
onnectivities');
#133=UNCERTAINTY_MEASURE_WITH_UNIT(LENGTH_MEASURE(1.E-6),#136,
'DISTANCE_ACCURACY_VALUE',
'Maximum model space distance between geometric entities at asserted c
onnectivities');
#134=(
GEOMETRIC_REPRESENTATION_CONTEXT(3)
GLOBAL_UNCERTAINTY_ASSIGNED_CONTEXT((#132))
GLOBAL_UNIT_ASSIGNED_CONTEXT((#136,#139,#137))
REPRESENTATION_CONTEXT('','3D')
);
#135=(
GEOMETRIC_REPRESENTATION_CONTEXT(3)
GLOBAL_UNCERTAINTY_ASSIGNED_CONTEXT((#133))
GLOBAL_UNIT_ASSIGNED_CONTEXT((#136,#139,#137))
REPRESENTATION_CONTEXT('','3D')
);
#136=(
LENGTH_UNIT()
NAMED_UNIT(*)
SI_UNIT(.MILLI.,.METRE.)
);
#137=(
NAMED_UNIT(*)
SI_UNIT($,.STERADIAN.)
SOLID_ANGLE_UNIT()
);
#138=DIMENSIONAL_EXPONENTS(0.,0.,0.,0.,0.,0.,0.);
#139=(
CONVERSION_BASED_UNIT('degree',#141)
NAMED_UNIT(#138)
PLANE_ANGLE_UNIT()
);
#140=(
NAMED_UNIT(*)
PLANE_ANGLE_UNIT()
SI_UNIT($,.RADIAN.)
);
#141=PLANE_ANGLE_MEASURE_WITH_UNIT(PLANE_ANGLE_MEASURE(0.01745329252),#140);
#142=SHAPE_DEFINITION_REPRESENTATION(#143,#144);
#143=PRODUCT_DEFINITION_SHAPE('',$,#146);
#144=SHAPE_REPRESENTATION('',(#79),#134);
#145=DESIGN_CONTEXT('part definition',#150,'design');
#146=PRODUCT_DEFINITION('20210020000','20210020000',#147,#145);
#147=PRODUCT_DEFINITION_FORMATION('',$,#152);
#148=PRODUCT_RELATED_PRODUCT_CATEGORY('20210020000','20210020000',(#152));
#149=APPLICATION_PROTOCOL_DEFINITION('international standard',
'ap203_configuration_controlled_3d_design_of_mechanical_parts_and_asse
mblies_mim_lf',2004,#150);
#150=APPLICATION_CONTEXT(
'Configuration Controlled 3D Design of Mechanical Parts and Assemblies');
#151=MECHANICAL_CONTEXT('part definition',#150,'mechanical');
#152=PRODUCT('20210020000','20210020000',$,(#151));
#153=PRESENTATION_STYLE_ASSIGNMENT((#154));
#154=SURFACE_STYLE_USAGE(.BOTH.,#155);
#155=SURFACE_SIDE_STYLE($,(#156));
#156=SURFACE_STYLE_FILL_AREA(#157);
#157=FILL_AREA_STYLE($,(#158));
#158=FILL_AREA_STYLE_COLOUR($,#159);
#159=COLOUR_RGB('',0.745098039215686,0.737254901960784,0.729411764705882);
ENDSEC;
END-ISO-10303-21;
