                                                                        S      1
,,30HTěsnění zaslepovací matice,11H20270065000,22HAutodesk Inventor G      1
2015,7Hunknown,32,38,7,99,15,,1.,2,2HMM,1,0.08,15H20160301.114620,0.01, G      2
10000.,14HStruska Martin,40HBupospol, Armaturka Koukol, spol. s r.o.,11,G      3
0,15H20140903.043446;                                                   G      4
     186       1                                                00000000D      1
     186             -39       1       0                               0D      2
     514       2                                                00010000D      3
     514                       1       1                               0D      4
     510       3                                                00010000D      5
     510             -39       1       1                               0D      6
     510       4                                                00010000D      7
     510             -39       1       1                               0D      8
     510       5                                                00010000D      9
     510             -39       1       1                               0D     10
     508       6                                                00010000D     11
     508                       2       1                               0D     12
     508       8                                                00010000D     13
     508                       1       1                               0D     14
     508       9                                                00010000D     15
     508                       1       1                               0D     16
     126      10                                                00010000D     17
     126       0               5       0                               0D     18
     126      15                                                00010000D     19
     126       0               5       0                               0D     20
     126      20                                                00010000D     21
     126       0               4       0                               0D     22
     126      24                                                00010000D     23
     126       0               5       0                               0D     24
     126      29                                                00010000D     25
     126       0               5       0                               0D     26
     128      34                                                00010000D     27
     128       0     -39      17       0                               0D     28
     128      51                                                00010000D     29
     128       0     -39       4       0                               0D     30
     128      55                                                00010000D     31
     128       0     -39       3       0                               0D     32
     502      58                                                00010000D     33
     502                       2       1                               0D     34
     504      60                                                00010001D     35
     504                       2       1                               0D     36
     406      62                                                00000000D     37
     406                       1      15                               0D     38
     314      63                                                00000200D     39
     314                       1       0                               0D     40
186,3,1,0,0,1,37;                                                      1P      1
514,3,5,1,7,1,9,1;                                                     3P      2
510,27,1,1,11;                                                         5P      3
510,29,1,1,13;                                                         7P      4
510,31,1,1,15;                                                         9P      5
508,6,0,35,1,0,0,0,35,2,0,0,0,35,3,1,0,0,35,4,1,0,0,35,5,1,0,0,       11P      6
35,3,0,0;                                                             11P      7
508,2,0,35,1,1,0,0,35,2,1,0;                                          13P      8
508,2,0,35,5,0,0,0,35,4,0,0;                                          15P      9
126,4,2,0,0,0,0,-3.14159265358979,-3.14159265358979,                  17P     10
-3.14159265358979,-1.5707963267949,-1.5707963267949,0.,0.,0.,1.,      17P     11
0.707106781186547,1.,0.707106781186547,1.,-47.5,3.,                   17P     12
5.81707229594993D-15,-47.5,3.,47.5,2.90853614797496D-15,3.,47.5,      17P     13
47.5,3.,47.5,47.5,3.,0.,-3.14159265358979,0.,0.,0.,0.;                17P     14
126,4,2,0,0,0,0,0.,0.,0.,1.5707963267949,1.5707963267949,             19P     15
3.14159265358979,3.14159265358979,3.14159265358979,1.,                19P     16
0.707106781186547,1.,0.707106781186547,1.,47.5,3.,0.,47.5,3.,         19P     17
-47.5,2.90853614797496D-15,3.,-47.5,-47.5,3.,-47.5,-47.5,3.,          19P     18
-5.81707229594993D-15,0.,3.14159265358979,0.,0.,0.;                   19P     19
126,1,1,0,0,1,0,-0.0315789473684211,-0.0315789473684211,              21P     20
0.0315789473684211,0.0315789473684211,1.,1.,47.5,3.,0.,47.5,          21P     21
-2.77555756156289D-16,0.,-0.0315789473684211,0.0315789473684211,      21P     22
0.,0.,0.;                                                             21P     23
126,4,2,0,0,0,0,0.,0.,0.,1.5707963267949,1.5707963267949,             23P     24
3.14159265358979,3.14159265358979,3.14159265358979,1.,                23P     25
0.707106781186547,1.,0.707106781186547,1.,47.5,0.,0.,47.5,0.,         23P     26
-47.5,2.90853614797496D-15,0.,-47.5,-47.5,0.,-47.5,-47.5,0.,          23P     27
-5.81707229594993D-15,0.,3.14159265358979,0.,0.,0.;                   23P     28
126,4,2,0,0,0,0,-3.14159265358979,-3.14159265358979,                  25P     29
-3.14159265358979,-1.5707963267949,-1.5707963267949,0.,0.,0.,1.,      25P     30
0.707106781186547,1.,0.707106781186547,1.,-47.5,0.,                   25P     31
5.81707229594993D-15,-47.5,0.,47.5,2.90853614797496D-15,0.,47.5,      25P     32
47.5,0.,47.5,47.5,0.,0.,-3.14159265358979,0.,0.,0.,0.;                25P     33
128,1,8,1,2,0,1,0,0,0,-0.0315789473684211,-0.0315789473684211,        27P     34
0.0315789473684211,0.0315789473684211,-3.14159265358979,              27P     35
-3.14159265358979,-3.14159265358979,-1.5707963267949,                 27P     36
-1.5707963267949,0.,0.,1.5707963267949,1.5707963267949,               27P     37
3.14159265358979,3.14159265358979,3.14159265358979,1.,1.,             27P     38
0.707106781186548,0.707106781186548,1.,1.,0.707106781186548,          27P     39
0.707106781186548,1.,1.,0.707106781186548,0.707106781186548,1.,       27P     40
1.,0.707106781186548,0.707106781186548,1.,1.,47.5,3.,0.,47.5,         27P     41
-2.77555756156289D-16,0.,47.5,3.,-47.5,47.5,                          27P     42
-2.77555756156289D-16,-47.5,0.,3.,-47.5,0.,                           27P     43
-2.77555756156289D-16,-47.5,-47.5,3.,-47.5,-47.5,                     27P     44
-2.77555756156289D-16,-47.5,-47.5,3.,0.,-47.5,                        27P     45
-2.77555756156289D-16,0.,-47.5,3.,47.5,-47.5,                         27P     46
-2.77555756156289D-16,47.5,0.,3.,47.5,0.,-2.77555756156289D-16,       27P     47
47.5,47.5,3.,47.5,47.5,-2.77555756156289D-16,47.5,47.5,3.,0.,         27P     48
47.5,-2.77555756156289D-16,0.,-0.0315789473684211,                    27P     49
0.0315789473684211,-3.14159265358979,3.14159265358979;                27P     50
128,1,1,1,1,0,0,1,0,0,-4.75,-4.75,4.75,4.75,-4.75,-4.75,4.75,         29P     51
4.75,1.,1.,1.,1.,-47.5,3.00000000000001,-47.5,-47.5,                  29P     52
3.00000000000001,47.5,47.5,3.00000000000001,-47.5,47.5,               29P     53
3.00000000000001,47.5,-4.75,4.75,-4.75,4.75;                          29P     54
128,1,1,1,1,0,0,1,0,0,-4.75,-4.75,4.75,4.75,0.,0.,9.5,9.5,1.,1.,      31P     55
1.,1.,-47.5,0.,47.5,-47.5,0.,-47.5,47.5,0.,47.5,47.5,0.,-47.5,        31P     56
-4.75,4.75,0.,9.5;                                                    31P     57
502,4,-47.5,3.,0.,47.5,3.,0.,47.5,-2.77555756156289D-16,0.,           33P     58
-47.5,0.,0.;                                                          33P     59
504,5,17,33,1,33,2,19,33,2,33,1,21,33,2,33,3,23,33,3,33,4,25,33,      35P     60
4,33,3;                                                               35P     61
406,1,8HTěleso1;                                                     37P     62
314,0.,60.,80.,;                                                      39P     63
S      1G      4D     40P     63                                        T      1
