                                                                        S      1
,,30HTěsnění zaslepovací matice,11H20270125000,22HAutodesk Inventor G      1
2015,7Hunknown,32,38,7,99,15,,1.,2,2HMM,1,0.08,15H20160301.114604,0.01, G      2
10000.,14HStruska Martin,40HBupospol, Armaturka Koukol, spol. s r.o.,11,G      3
0,15H20140903.043446;                                                   G      4
     186       1                                                00000000D      1
     186             -39       1       0                               0D      2
     514       2                                                00010000D      3
     514                       1       1                               0D      4
     510       3                                                00010000D      5
     510             -39       1       1                               0D      6
     510       4                                                00010000D      7
     510             -39       1       1                               0D      8
     510       5                                                00010000D      9
     510             -39       1       1                               0D     10
     508       6                                                00010000D     11
     508                       2       1                               0D     12
     508       8                                                00010000D     13
     508                       1       1                               0D     14
     508       9                                                00010000D     15
     508                       1       1                               0D     16
     126      10                                                00010000D     17
     126       0               5       0                               0D     18
     126      15                                                00010000D     19
     126       0               5       0                               0D     20
     126      20                                                00010000D     21
     126       0               2       0                               0D     22
     126      22                                                00010000D     23
     126       0               5       0                               0D     24
     126      27                                                00010000D     25
     126       0               5       0                               0D     26
     128      32                                                00010000D     27
     128       0     -39      12       0                               0D     28
     128      44                                                00010000D     29
     128       0     -39       3       0                               0D     30
     128      47                                                00010000D     31
     128       0     -39       2       0                               0D     32
     502      49                                                00010000D     33
     502                       1       1                               0D     34
     504      50                                                00010001D     35
     504                       2       1                               0D     36
     406      52                                                00000000D     37
     406                       1      15                               0D     38
     314      53                                                00000200D     39
     314                       1       0                               0D     40
186,3,1,0,0,1,37;                                                      1P      1
514,3,5,1,7,1,9,1;                                                     3P      2
510,27,1,1,11;                                                         5P      3
510,29,1,1,13;                                                         7P      4
510,31,1,1,15;                                                         9P      5
508,6,0,35,1,0,0,0,35,2,0,0,0,35,3,1,0,0,35,4,1,0,0,35,5,1,0,0,       11P      6
35,3,0,0;                                                             11P      7
508,2,0,35,1,1,0,0,35,2,1,0;                                          13P      8
508,2,0,35,5,0,0,0,35,4,0,0;                                          15P      9
126,4,2,0,0,0,0,-3.14159265358979,-3.14159265358979,                  17P     10
-3.14159265358979,-1.5707963267949,-1.5707963267949,0.,0.,0.,1.,      17P     11
0.707106781186548,1.,0.707106781186547,1.,-80.,3.,                    17P     12
9.79717439317883D-15,-80.,3.,80.,4.89858719658941D-15,3.,80.,         17P     13
80.,3.,80.,80.,3.,0.,-3.14159265358979,0.,0.,0.,0.;                   17P     14
126,4,2,0,0,0,0,0.,0.,0.,1.5707963267949,1.5707963267949,             19P     15
3.14159265358979,3.14159265358979,3.14159265358979,1.,                19P     16
0.707106781186547,1.,0.707106781186548,1.,80.,3.,0.,80.,3.,-80.,      19P     17
4.89858719658941D-15,3.,-80.,-80.,3.,-80.,-80.,3.,                    19P     18
-9.79717439317883D-15,0.,3.14159265358979,0.,0.,0.;                   19P     19
126,1,1,0,0,1,0,-0.01875,-0.01875,0.01875,0.01875,1.,1.,80.,3.,       21P     20
0.,80.,0.,0.,-0.01875,0.01875,0.,0.,0.;                               21P     21
126,4,2,0,0,0,0,0.,0.,0.,1.5707963267949,1.5707963267949,             23P     22
3.14159265358979,3.14159265358979,3.14159265358979,1.,                23P     23
0.707106781186547,1.,0.707106781186548,1.,80.,0.,0.,80.,0.,-80.,      23P     24
4.89858719658941D-15,0.,-80.,-80.,0.,-80.,-80.,0.,                    23P     25
-9.79717439317883D-15,0.,3.14159265358979,0.,0.,0.;                   23P     26
126,4,2,0,0,0,0,-3.14159265358979,-3.14159265358979,                  25P     27
-3.14159265358979,-1.5707963267949,-1.5707963267949,0.,0.,0.,1.,      25P     28
0.707106781186548,1.,0.707106781186547,1.,-80.,0.,                    25P     29
9.79717439317883D-15,-80.,0.,80.,4.89858719658941D-15,0.,80.,         25P     30
80.,0.,80.,80.,0.,0.,-3.14159265358979,0.,0.,0.,0.;                   25P     31
128,1,8,1,2,0,1,0,0,0,-0.01875,-0.01875,0.01875,0.01875,              27P     32
-3.14159265358979,-3.14159265358979,-3.14159265358979,                27P     33
-1.5707963267949,-1.5707963267949,0.,0.,1.5707963267949,              27P     34
1.5707963267949,3.14159265358979,3.14159265358979,                    27P     35
3.14159265358979,1.,1.,0.707106781186548,0.707106781186548,1.,        27P     36
1.,0.707106781186548,0.707106781186548,1.,1.,0.707106781186548,       27P     37
0.707106781186548,1.,1.,0.707106781186548,0.707106781186548,1.,       27P     38
1.,80.,3.,0.,80.,0.,0.,80.,3.,-80.,80.,0.,-80.,0.,3.,-80.,0.,0.,      27P     39
-80.,-80.,3.,-80.,-80.,0.,-80.,-80.,3.,0.,-80.,0.,0.,-80.,3.,         27P     40
80.,-80.,0.,80.,0.,3.,80.,0.,0.,80.,80.,3.,80.,80.,0.,80.,80.,        27P     41
3.,0.,80.,0.,0.,-0.01875,0.01875,-3.14159265358979,                   27P     42
3.14159265358979;                                                     27P     43
128,1,1,1,1,0,0,1,0,0,-8.,-8.,8.,8.,-8.,-8.,8.,8.,1.,1.,1.,1.,        29P     44
-80.,3.00000000000001,-80.,-80.,3.00000000000001,80.,80.,             29P     45
3.00000000000001,-80.,80.,3.00000000000001,80.,-8.,8.,-8.,8.;         29P     46
128,1,1,1,1,0,0,1,0,0,-8.,-8.,8.,8.,0.,0.,16.,16.,1.,1.,1.,1.,        31P     47
-80.,0.,80.,-80.,0.,-80.,80.,0.,80.,80.,0.,-80.,-8.,8.,0.,16.;        31P     48
502,4,-80.,3.,0.,80.,3.,0.,80.,0.,0.,-80.,0.,0.;                      33P     49
504,5,17,33,1,33,2,19,33,2,33,1,21,33,2,33,3,23,33,3,33,4,25,33,      35P     50
4,33,3;                                                               35P     51
406,1,8HTěleso1;                                                     37P     52
314,0.,60.,80.,;                                                      39P     53
S      1G      4D     40P     53                                        T      1
