ISO-10303-21;
HEADER;
/* Generated by software containing ST-Developer
 * from STEP Tools, Inc. (www.steptools.com) 
 */

FILE_DESCRIPTION(
/* description */ ('T\X2\011B\X0\sn\X2\011B\X0\n\X\ED zaslepovac\X\ED 
matice'),
/* implementation_level */ '2;1');

FILE_NAME(
/* name */ 
'C:\\Vault_Workspace\\DATA\\Katalog Bupospol\\2 Potrubn\X\ED d\X\EDly\\
2.0 \X2\0160\X0\rouben\X\ED\\20270\\20270\\20270080000.stp',
/* time_stamp */ '2016-01-11T09:25:26+01:00',
/* author */ ('Struska'),
/* organization */ ('Bupospol'),
/* preprocessor_version */ 'ST-DEVELOPER v15.6',
/* originating_system */ 'Autodesk Inventor 2015',
/* authorisation */ '');

FILE_SCHEMA (('CONFIG_CONTROL_DESIGN'));
ENDSEC;

DATA;
#10=MECHANICAL_DESIGN_GEOMETRIC_PRESENTATION_REPRESENTATION('',(#38,#36,
#37,#35),#72);
#11=SHAPE_REPRESENTATION_RELATIONSHIP('SRR','None',#81,#12);
#12=ADVANCED_BREP_SHAPE_REPRESENTATION($,(#13),#71);
#13=MANIFOLD_SOLID_BREP('T\X2\011B\X0\leso1',#42);
#14=PLANE('',#47);
#15=PLANE('',#48);
#16=FACE_BOUND('',#21,.T.);
#17=FACE_OUTER_BOUND('',#20,.T.);
#18=FACE_OUTER_BOUND('',#22,.T.);
#19=FACE_OUTER_BOUND('',#23,.T.);
#20=EDGE_LOOP('',(#30));
#21=EDGE_LOOP('',(#31));
#22=EDGE_LOOP('',(#32));
#23=EDGE_LOOP('',(#33));
#24=CIRCLE('',#45,55.);
#25=CIRCLE('',#46,55.);
#26=VERTEX_POINT('',#63);
#27=VERTEX_POINT('',#65);
#28=EDGE_CURVE('',#26,#26,#24,.T.);
#29=EDGE_CURVE('',#27,#27,#25,.T.);
#30=ORIENTED_EDGE('',*,*,#28,.F.);
#31=ORIENTED_EDGE('',*,*,#29,.T.);
#32=ORIENTED_EDGE('',*,*,#28,.T.);
#33=ORIENTED_EDGE('',*,*,#29,.F.);
#34=CYLINDRICAL_SURFACE('',#44,55.);
#35=STYLED_ITEM('',(#90),#39);
#36=STYLED_ITEM('',(#90),#40);
#37=STYLED_ITEM('',(#90),#41);
#38=STYLED_ITEM('',(#90),#13);
#39=ADVANCED_FACE('',(#17,#16),#34,.T.);
#40=ADVANCED_FACE('',(#18),#14,.T.);
#41=ADVANCED_FACE('',(#19),#15,.T.);
#42=CLOSED_SHELL('',(#39,#40,#41));
#43=AXIS2_PLACEMENT_3D('placement',#61,#49,#50);
#44=AXIS2_PLACEMENT_3D('',#62,#51,#52);
#45=AXIS2_PLACEMENT_3D('',#64,#53,#54);
#46=AXIS2_PLACEMENT_3D('',#66,#55,#56);
#47=AXIS2_PLACEMENT_3D('',#67,#57,#58);
#48=AXIS2_PLACEMENT_3D('',#68,#59,#60);
#49=DIRECTION('axis',(0.,0.,1.));
#50=DIRECTION('refdir',(1.,0.,0.));
#51=DIRECTION('center_axis',(0.,1.,0.));
#52=DIRECTION('ref_axis',(-1.,0.,0.));
#53=DIRECTION('center_axis',(0.,1.,0.));
#54=DIRECTION('ref_axis',(1.,0.,0.));
#55=DIRECTION('center_axis',(0.,1.,0.));
#56=DIRECTION('ref_axis',(1.,0.,0.));
#57=DIRECTION('center_axis',(0.,1.,0.));
#58=DIRECTION('ref_axis',(0.,0.,1.));
#59=DIRECTION('center_axis',(0.,-1.,0.));
#60=DIRECTION('ref_axis',(0.,0.,-1.));
#61=CARTESIAN_POINT('',(0.,0.,0.));
#62=CARTESIAN_POINT('Origin',(0.,1.5,0.));
#63=CARTESIAN_POINT('',(-55.,3.,0.));
#64=CARTESIAN_POINT('Origin',(0.,3.,0.));
#65=CARTESIAN_POINT('',(-55.,0.,0.));
#66=CARTESIAN_POINT('Origin',(0.,0.,0.));
#67=CARTESIAN_POINT('Origin',(-8.88178419700125E-15,3.00000000000001,0.));
#68=CARTESIAN_POINT('Origin',(-55.,0.,0.));
#69=UNCERTAINTY_MEASURE_WITH_UNIT(LENGTH_MEASURE(0.01),#73,
'DISTANCE_ACCURACY_VALUE',
'Maximum model space distance between geometric entities at asserted c
onnectivities');
#70=UNCERTAINTY_MEASURE_WITH_UNIT(LENGTH_MEASURE(1.E-6),#73,
'DISTANCE_ACCURACY_VALUE',
'Maximum model space distance between geometric entities at asserted c
onnectivities');
#71=(
GEOMETRIC_REPRESENTATION_CONTEXT(3)
GLOBAL_UNCERTAINTY_ASSIGNED_CONTEXT((#69))
GLOBAL_UNIT_ASSIGNED_CONTEXT((#73,#76,#74))
REPRESENTATION_CONTEXT('','3D')
);
#72=(
GEOMETRIC_REPRESENTATION_CONTEXT(3)
GLOBAL_UNCERTAINTY_ASSIGNED_CONTEXT((#70))
GLOBAL_UNIT_ASSIGNED_CONTEXT((#73,#76,#74))
REPRESENTATION_CONTEXT('','3D')
);
#73=(
LENGTH_UNIT()
NAMED_UNIT(*)
SI_UNIT(.MILLI.,.METRE.)
);
#74=(
NAMED_UNIT(*)
SI_UNIT($,.STERADIAN.)
SOLID_ANGLE_UNIT()
);
#75=DIMENSIONAL_EXPONENTS(0.,0.,0.,0.,0.,0.,0.);
#76=(
CONVERSION_BASED_UNIT('degree',#78)
NAMED_UNIT(#75)
PLANE_ANGLE_UNIT()
);
#77=(
NAMED_UNIT(*)
PLANE_ANGLE_UNIT()
SI_UNIT($,.RADIAN.)
);
#78=PLANE_ANGLE_MEASURE_WITH_UNIT(PLANE_ANGLE_MEASURE(0.01745329252),#77);
#79=SHAPE_DEFINITION_REPRESENTATION(#80,#81);
#80=PRODUCT_DEFINITION_SHAPE('',$,#83);
#81=SHAPE_REPRESENTATION('',(#43),#71);
#82=DESIGN_CONTEXT('part definition',#87,'design');
#83=PRODUCT_DEFINITION('20270080000','20270080000',#84,#82);
#84=PRODUCT_DEFINITION_FORMATION('',$,#89);
#85=PRODUCT_RELATED_PRODUCT_CATEGORY('20270080000','20270080000',(#89));
#86=APPLICATION_PROTOCOL_DEFINITION('international standard',
'ap203_configuration_controlled_3d_design_of_mechanical_parts_and_asse
mblies_mim_lf',2004,#87);
#87=APPLICATION_CONTEXT(
'Configuration Controlled 3D Design of Mechanical Parts and Assemblies');
#88=MECHANICAL_CONTEXT('part definition',#87,'mechanical');
#89=PRODUCT('20270080000','20270080000',$,(#88));
#90=PRESENTATION_STYLE_ASSIGNMENT((#91));
#91=SURFACE_STYLE_USAGE(.BOTH.,#92);
#92=SURFACE_SIDE_STYLE($,(#93));
#93=SURFACE_STYLE_FILL_AREA(#94);
#94=FILL_AREA_STYLE($,(#95));
#95=FILL_AREA_STYLE_COLOUR($,#96);
#96=COLOUR_RGB('',0.,0.6,0.8);
ENDSEC;
END-ISO-10303-21;
