                                                                        S      1
,,31HNátrubek s vnějším závitem,11H20510040000,22HAutodesk InventorG      1
 2015,7Hunknown,32,38,7,99,15,,1.,2,2HMM,1,0.08,15H20160301.115823,0.01,G      2
10000.,14HStruska Martin,40HBupospol, Armaturka Koukol, spol. s.r.o.,11,G      3
0,15H20140923.063551;                                                   G      4
     186       1                                                00000000D      1
     186             -93       1       0                               0D      2
     514       2                                                00010000D      3
     514                       1       1                               0D      4
     510       3                                                00010000D      5
     510             -93       1       1                               0D      6
     510       4                                                00010000D      7
     510             -93       1       1                               0D      8
     510       5                                                00010000D      9
     510             -93       1       1                               0D     10
     510       6                                                00010000D     11
     510             -93       1       1                               0D     12
     510       7                                                00010000D     13
     510             -93       1       1                               0D     14
     510       8                                                00010000D     15
     510             -93       1       1                               0D     16
     510       9                                                00010000D     17
     510             -93       1       1                               0D     18
     510      10                                                00010000D     19
     510             -93       1       1                               0D     20
     508      11                                                00010000D     21
     508                       1       1                               0D     22
     508      12                                                00010000D     23
     508                       1       1                               0D     24
     508      13                                                00010000D     25
     508                       1       1                               0D     26
     508      14                                                00010000D     27
     508                       1       1                               0D     28
     508      15                                                00010000D     29
     508                       1       1                               0D     30
     508      16                                                00010000D     31
     508                       1       1                               0D     32
     508      17                                                00010000D     33
     508                       1       1                               0D     34
     508      18                                                00010000D     35
     508                       1       1                               0D     36
     508      19                                                00010000D     37
     508                       1       1                               0D     38
     508      20                                                00010000D     39
     508                       1       1                               0D     40
     126      21                                                00010000D     41
     126       0              10       0                               0D     42
     126      31                                                00010000D     43
     126       0               4       0                               0D     44
     126      35                                                00010000D     45
     126       0              10       0                               0D     46
     126      45                                                00010000D     47
     126       0              10       0                               0D     48
     126      55                                                00010000D     49
     126       0               6       0                               0D     50
     126      61                                                00010000D     51
     126       0               5       0                               0D     52
     126      66                                                00010000D     53
     126       0               3       0                               0D     54
     126      69                                                00010000D     55
     126       0               4       0                               0D     56
     126      73                                                00010000D     57
     126       0              10       0                               0D     58
     126      83                                                00010000D     59
     126       0              11       0                               0D     60
     126      94                                                00010000D     61
     126       0               3       0                               0D     62
     126      97                                                00010000D     63
     126       0              10       0                               0D     64
     126     107                                                00010000D     65
     126       0               3       0                               0D     66
     126     110                                                00010000D     67
     126       0              10       0                               0D     68
     126     120                                                00010000D     69
     126       0               3       0                               0D     70
     128     123                                                00010000D     71
     128       0     -93      16       0                               0D     72
     128     139                                                00010000D     73
     128       0     -93       4       0                               0D     74
     128     143                                                00010000D     75
     128       0     -93      14       0                               0D     76
     128     157                                                00010000D     77
     128       0     -93      20       0                               0D     78
     128     177                                                00010000D     79
     128       0     -93      15       0                               0D     80
     128     192                                                00010000D     81
     128       0     -93      14       0                               0D     82
     128     206                                                00010000D     83
     128       0     -93       4       0                               0D     84
     128     210                                                00010000D     85
     128       0     -93      15       0                               0D     86
     502     225                                                00010000D     87
     502                       5       1                               0D     88
     504     230                                                00010001D     89
     504                       4       1                               0D     90
     406     234                                                00000000D     91
     406                       1      15                               0D     92
     314     235                                                00000200D     93
     314                       1       0                               0D     94
186,3,1,0,0,1,91;                                                      1P      1
514,8,5,1,7,1,9,1,11,1,13,1,15,1,17,1,19,1;                            3P      2
510,71,1,1,21;                                                         5P      3
510,73,2,1,23,25;                                                      7P      4
510,75,1,1,27;                                                         9P      5
510,77,1,1,29;                                                        11P      6
510,79,1,1,31;                                                        13P      7
510,81,1,1,33;                                                        15P      8
510,83,2,1,35,37;                                                     17P      9
510,85,1,1,39;                                                        19P     10
508,4,0,89,1,1,0,0,89,2,1,0,0,89,3,1,0,0,89,2,0,0;                    21P     11
508,1,0,89,4,0,0;                                                     23P     12
508,1,0,89,1,0,0;                                                     25P     13
508,5,0,89,5,0,0,0,89,6,0,0,0,89,7,1,0,0,89,3,0,0,0,89,7,0,0;         27P     14
508,4,0,89,4,1,0,0,89,8,1,0,0,89,9,1,0,0,89,8,0,0;                    29P     15
508,4,0,89,10,0,0,0,89,11,1,0,0,89,9,0,0,0,89,11,0,0;                 31P     16
508,5,0,89,12,1,0,0,89,13,1,0,0,89,5,1,0,0,89,6,1,0,0,89,13,0,0;      33P     17
508,1,0,89,14,0,0;                                                    35P     18
508,1,0,89,12,0,0;                                                    37P     19
508,4,0,89,14,1,0,0,89,15,1,0,0,89,10,1,0,0,89,15,0,0;                39P     20
126,8,2,0,1,0,0,-3.14159265358979,-3.14159265358979,                  41P     21
-3.14159265358979,-1.5707963267949,-1.5707963267949,0.,0.,            41P     22
1.5707963267949,1.5707963267949,3.14159265358979,                     41P     23
3.14159265358979,3.14159265358979,1.,0.707106781186548,1.,            41P     24
0.707106781186548,1.,0.707106781186548,1.,0.707106781186548,1.,       41P     25
-8.25,1.01033360929657D-15,0.,-8.25,8.25,0.,                          41P     26
5.05166804648283D-16,8.25,0.,8.25,8.25,0.,8.25,0.,0.,8.25,-8.25,      41P     27
0.,5.05166804648283D-16,-8.25,0.,-8.25,-8.25,0.,-8.25,                41P     28
-1.01033360929657D-15,0.,-3.14159265358979,3.14159265358979,0.,       41P     29
0.,0.;                                                                41P     30
126,1,1,0,0,1,0,-0.0441941738241592,-0.0441941738241592,              43P     31
0.0441941738241593,0.0441941738241593,1.,1.,-8.25,0.,                 43P     32
3.46944695195361D-17,-7.75,0.,0.5,-0.0441941738241592,                43P     33
0.0441941738241593,0.,0.,0.;                                          43P     34
126,8,2,0,1,0,0,-3.14159265358979,-3.14159265358979,                  45P     35
-3.14159265358979,-1.5707963267949,-1.5707963267949,0.,0.,            45P     36
1.5707963267949,1.5707963267949,3.14159265358979,                     45P     37
3.14159265358979,3.14159265358979,1.,0.707106781186547,1.,            45P     38
0.707106781186547,1.,0.707106781186547,1.,0.707106781186547,1.,       45P     39
-7.75,-9.49101269339199D-16,0.5,-7.75,-7.75,0.5,                      45P     40
4.74550634669599D-16,-7.75,0.5,7.75,-7.75,0.5,7.75,0.,0.5,7.75,       45P     41
7.75,0.5,4.74550634669599D-16,7.75,0.5,-7.75,7.75,0.5,-7.75,          45P     42
9.49101269339199D-16,0.5,-3.14159265358979,3.14159265358979,0.,       45P     43
0.,0.;                                                                45P     44
126,8,2,0,1,0,0,-3.14159265358979,-3.14159265358979,                  47P     45
-3.14159265358979,-1.5707963267949,-1.5707963267949,0.,0.,            47P     46
1.5707963267949,1.5707963267949,3.14159265358979,                     47P     47
3.14159265358979,3.14159265358979,1.,0.707106781186547,1.,            47P     48
0.707106781186547,1.,0.707106781186547,1.,0.707106781186547,1.,       47P     49
9.9775,1.22189134384927D-15,0.,9.9775,9.9775,0.,                      47P     50
-6.10945671924636D-16,9.9775,0.,-9.9775,9.9775,0.,-9.9775,0.,0.,      47P     51
-9.9775,-9.9775,0.,-6.10945671924636D-16,-9.9775,0.,9.9775,           47P     52
-9.9775,0.,9.9775,-1.22189134384927D-15,0.,-3.14159265358979,         47P     53
3.14159265358979,0.,0.,0.;                                            47P     54
126,4,2,0,0,0,0,-3.14159265358979,-3.14159265358979,                  49P     55
-3.14159265358979,-1.5707963267949,-1.5707963267949,0.,0.,0.,1.,      49P     56
0.707106781186547,1.,0.707106781186547,1.,7.75,                       49P     57
-9.49101269339199D-16,24.5,7.75,-7.75,24.5,                           49P     58
-4.74550634669599D-16,-7.75,24.5,-7.75,-7.75,24.5,-7.75,0.,24.5,      49P     59
-3.14159265358979,0.,0.,0.,0.;                                        49P     60
126,4,2,0,0,0,0,0.,0.,0.,1.5707963267949,1.5707963267949,             51P     61
3.14159265358979,3.14159265358979,3.14159265358979,1.,                51P     62
0.707106781186547,1.,0.707106781186547,1.,-7.75,0.,24.5,-7.75,        51P     63
7.75,24.5,-4.74550634669599D-16,7.75,24.5,7.75,7.75,24.5,7.75,        51P     64
9.49101269339199D-16,24.5,0.,3.14159265358979,0.,0.,0.;               51P     65
126,1,1,0,0,1,0,-4.93824947447775,-4.93824947447775,                  53P     66
-1.84147528092936,-1.84147528092936,1.,1.,-7.75,0.,24.5,-7.75,        53P     67
0.,0.5,-4.93824947447775,-1.84147528092936,0.,0.,0.;                  53P     68
126,1,1,0,0,1,0,-0.0345688966603054,-0.0345688966603054,              55P     69
0.0345688966603055,0.0345688966603055,1.,1.,9.9775,0.,                55P     70
5.55111512312578D-16,10.4775,0.,0.500000000000001,                    55P     71
-0.0345688966603054,0.0345688966603055,0.,0.,0.;                      55P     72
126,8,2,0,1,0,0,-3.14159265358979,-3.14159265358979,                  57P     73
-3.14159265358979,-1.5707963267949,-1.5707963267949,0.,0.,            57P     74
1.5707963267949,1.5707963267949,3.14159265358979,                     57P     75
3.14159265358979,3.14159265358979,1.,0.707106781186547,1.,            57P     76
0.707106781186547,1.,0.707106781186547,1.,0.707106781186547,1.,       57P     77
10.4775,-1.28312368380664D-15,0.5,10.4775,-10.4775,0.5,               57P     78
-6.4156184190332D-16,-10.4775,0.5,-10.4775,-10.4775,0.5,              57P     79
-10.4775,0.,0.5,-10.4775,10.4775,0.5,-6.4156184190332D-16,            57P     80
10.4775,0.5,10.4775,10.4775,0.5,10.4775,1.28312368380664D-15,         57P     81
0.5,-3.14159265358979,3.14159265358979,0.,0.,0.;                      57P     82
126,8,2,0,1,0,0,-3.14159265358979,-3.14159265358979,                  59P     83
-3.14159265358979,-1.5707963267949,-1.5707963267949,0.,0.,            59P     84
1.5707963267949,1.5707963267949,3.14159265358979,                     59P     85
3.14159265358979,3.14159265358979,1.,0.707106781186547,1.,            59P     86
0.707106781186547,1.,0.707106781186547,1.,0.707106781186547,1.,       59P     87
10.4775,1.28312368380664D-15,24.5,10.4775,10.4775,24.5,               59P     88
-6.4156184190332D-16,10.4775,24.5,-10.4775,10.4775,24.5,              59P     89
-10.4775,0.,24.5,-10.4775,-10.4775,24.5,-6.4156184190332D-16,         59P     90
-10.4775,24.5,10.4775,-10.4775,24.5,10.4775,                          59P     91
-1.28312368380664D-15,24.5,-3.14159265358979,3.14159265358979,        59P     92
0.,0.,0.;                                                             59P     93
126,1,1,0,0,1,0,-2.33834407062754,-2.33834407062754,                  61P     94
-0.0477213075638273,-0.0477213075638273,1.,1.,10.4775,0.,24.5,        61P     95
10.4775,0.,0.5,-2.33834407062754,-0.0477213075638273,0.,0.,0.;        61P     96
126,8,2,0,1,0,0,-3.14159265358979,-3.14159265358979,                  63P     97
-3.14159265358979,-1.5707963267949,-1.5707963267949,0.,0.,            63P     98
1.5707963267949,1.5707963267949,3.14159265358979,                     63P     99
3.14159265358979,3.14159265358979,1.,0.707106781186548,1.,            63P    100
0.707106781186548,1.,0.707106781186548,1.,0.707106781186548,1.,       63P    101
8.25,1.01033360929657D-15,25.,8.25,8.25,25.,                          63P    102
-5.05166804648283D-16,8.25,25.,-8.25,8.25,25.,-8.25,0.,25.,           63P    103
-8.25,-8.25,25.,-5.05166804648283D-16,-8.25,25.,8.25,-8.25,25.,       63P    104
8.25,-1.01033360929657D-15,25.,-3.14159265358979,                     63P    105
3.14159265358979,0.,0.,0.;                                            63P    106
126,1,1,0,0,1,0,-0.0441941738241592,-0.0441941738241592,              65P    107
0.0441941738241592,0.0441941738241592,1.,1.,8.25,0.,25.,7.75,0.,      65P    108
24.5,-0.0441941738241592,0.0441941738241592,0.,0.,0.;                 65P    109
126,8,2,0,1,0,0,-3.14159265358979,-3.14159265358979,                  67P    110
-3.14159265358979,-1.5707963267949,-1.5707963267949,0.,0.,            67P    111
1.5707963267949,1.5707963267949,3.14159265358979,                     67P    112
3.14159265358979,3.14159265358979,1.,0.707106781186547,1.,            67P    113
0.707106781186547,1.,0.707106781186547,1.,0.707106781186547,1.,       67P    114
9.9775,-1.22189134384927D-15,25.,9.9775,-9.9775,25.,                  67P    115
-6.10945671924636D-16,-9.9775,25.,-9.9775,-9.9775,25.,-9.9775,        67P    116
0.,25.,-9.9775,9.9775,25.,-6.10945671924636D-16,9.9775,25.,           67P    117
9.9775,9.9775,25.,9.9775,1.22189134384927D-15,25.,                    67P    118
-3.14159265358979,3.14159265358979,0.,0.,0.;                          67P    119
126,1,1,0,0,1,0,-0.0345688966603053,-0.0345688966603053,              69P    120
0.0345688966603055,0.0345688966603055,1.,1.,9.9775,0.,25.,            69P    121
10.4775,0.,24.5,-0.0345688966603053,0.0345688966603055,0.,0.,0.;      69P    122
128,1,8,1,2,0,1,0,0,0,-0.0441941738241593,-0.0441941738241593,        71P    123
0.0441941738241592,0.0441941738241592,-3.14159265358979,              71P    124
-3.14159265358979,-3.14159265358979,-1.5707963267949,                 71P    125
-1.5707963267949,0.,0.,1.5707963267949,1.5707963267949,               71P    126
3.14159265358979,3.14159265358979,3.14159265358979,1.,1.,             71P    127
0.707106781186548,0.707106781186548,1.,1.,0.707106781186548,          71P    128
0.707106781186548,1.,1.,0.707106781186548,0.707106781186548,1.,       71P    129
1.,0.707106781186548,0.707106781186548,1.,1.,-7.75,0.,0.5,-8.25,      71P    130
0.,3.46944695195361D-17,-7.75,7.75,0.5,-8.25,8.25,                    71P    131
3.46944695195361D-17,0.,7.75,0.5,0.,8.25,3.46944695195361D-17,        71P    132
7.75,7.75,0.5,8.25,8.25,3.46944695195361D-17,7.75,0.,0.5,8.25,        71P    133
0.,3.46944695195361D-17,7.75,-7.75,0.5,8.25,-8.25,                    71P    134
3.46944695195361D-17,0.,-7.75,0.5,0.,-8.25,3.46944695195361D-17,      71P    135
-7.75,-7.75,0.5,-8.25,-8.25,3.46944695195361D-17,-7.75,0.,0.5,        71P    136
-8.25,0.,3.46944695195361D-17,-0.0441941738241593,                    71P    137
0.0441941738241592,-3.14159265358979,3.14159265358979;                71P    138
128,1,1,1,1,0,0,1,0,0,-0.99775,-0.99775,0.99775,0.99775,              73P    139
-0.99775,-0.99775,0.99775,0.99775,1.,1.,1.,1.,9.9775,-9.9775,0.,      73P    140
-9.9775,-9.9775,0.,9.9775,9.9775,0.,-9.9775,9.9775,0.,-0.99775,       73P    141
0.99775,-0.99775,0.99775;                                             73P    142
128,1,8,1,2,0,1,0,0,0,-4.93824947447775,-4.93824947447775,            75P    143
-1.84147528092936,-1.84147528092936,-3.14159265358979,                75P    144
-3.14159265358979,-3.14159265358979,-1.5707963267949,                 75P    145
-1.5707963267949,0.,0.,1.5707963267949,1.5707963267949,               75P    146
3.14159265358979,3.14159265358979,3.14159265358979,1.,1.,             75P    147
0.707106781186548,0.707106781186548,1.,1.,0.707106781186548,          75P    148
0.707106781186548,1.,1.,0.707106781186548,0.707106781186548,1.,       75P    149
1.,0.707106781186548,0.707106781186548,1.,1.,-7.75,0.,0.5,-7.75,      75P    150
0.,24.5,-7.75,-7.75,0.5,-7.75,-7.75,24.5,0.,-7.75,0.5,0.,-7.75,       75P    151
24.5,7.75,-7.75,0.5,7.75,-7.75,24.5,7.75,0.,0.5,7.75,0.,24.5,         75P    152
7.75,7.75,0.5,7.75,7.75,24.5,0.,7.75,0.5,0.,7.75,24.5,-7.75,          75P    153
7.75,0.5,-7.75,7.75,24.5,-7.75,0.,0.5,-7.75,0.,24.5,                  75P    154
-4.93824947447775,-1.84147528092936,-3.14159265358979,                75P    155
3.14159265358979;                                                     75P    156
128,1,8,1,2,0,1,0,0,0,-0.0345688966603055,-0.0345688966603055,        77P    157
0.0345688966603054,0.0345688966603054,-3.14159265358979,              77P    158
-3.14159265358979,-3.14159265358979,-1.5707963267949,                 77P    159
-1.5707963267949,0.,0.,1.5707963267949,1.5707963267949,               77P    160
3.14159265358979,3.14159265358979,3.14159265358979,1.,1.,             77P    161
0.707106781186548,0.707106781186548,1.,1.,0.707106781186548,          77P    162
0.707106781186548,1.,1.,0.707106781186548,0.707106781186548,1.,       77P    163
1.,0.707106781186548,0.707106781186548,1.,1.,9.9775,0.,               77P    164
5.55111512312578D-16,10.4775,0.,0.500000000000001,9.9775,             77P    165
-9.9775,5.55111512312578D-16,10.4775,-10.4775,0.500000000000001,      77P    166
0.,-9.9775,5.55111512312578D-16,0.,-10.4775,0.500000000000001,        77P    167
-9.9775,-9.9775,5.55111512312578D-16,-10.4775,-10.4775,               77P    168
0.500000000000001,-9.9775,0.,5.55111512312578D-16,-10.4775,0.,        77P    169
0.500000000000001,-9.9775,9.9775,5.55111512312578D-16,-10.4775,       77P    170
10.4775,0.500000000000001,0.,9.9775,5.55111512312578D-16,0.,          77P    171
10.4775,0.500000000000001,9.9775,9.9775,5.55111512312578D-16,         77P    172
10.4775,10.4775,0.500000000000001,9.9775,0.,                          77P    173
5.55111512312578D-16,10.4775,0.,0.500000000000001,                    77P    174
-0.0345688966603055,0.0345688966603054,-3.14159265358979,             77P    175
3.14159265358979;                                                     77P    176
128,1,8,1,2,0,1,0,0,0,0.0477213075638273,0.0477213075638273,          79P    177
2.33834407062754,2.33834407062754,-3.14159265358979,                  79P    178
-3.14159265358979,-3.14159265358979,-1.5707963267949,                 79P    179
-1.5707963267949,0.,0.,1.5707963267949,1.5707963267949,               79P    180
3.14159265358979,3.14159265358979,3.14159265358979,1.,1.,             79P    181
0.707106781186548,0.707106781186548,1.,1.,0.707106781186548,          79P    182
0.707106781186548,1.,1.,0.707106781186548,0.707106781186548,1.,       79P    183
1.,0.707106781186548,0.707106781186548,1.,1.,10.4775,0.,24.5,         79P    184
10.4775,0.,0.5,10.4775,10.4775,24.5,10.4775,10.4775,0.5,0.,           79P    185
10.4775,24.5,0.,10.4775,0.5,-10.4775,10.4775,24.5,-10.4775,           79P    186
10.4775,0.5,-10.4775,0.,24.5,-10.4775,0.,0.5,-10.4775,-10.4775,       79P    187
24.5,-10.4775,-10.4775,0.5,0.,-10.4775,24.5,0.,-10.4775,0.5,          79P    188
10.4775,-10.4775,24.5,10.4775,-10.4775,0.5,10.4775,0.,24.5,           79P    189
10.4775,0.,0.5,0.0477213075638273,2.33834407062754,                   79P    190
-3.14159265358979,3.14159265358979;                                   79P    191
128,1,8,1,2,0,1,0,0,0,-0.0441941738241592,-0.0441941738241592,        81P    192
0.0441941738241592,0.0441941738241592,-3.14159265358979,              81P    193
-3.14159265358979,-3.14159265358979,-1.5707963267949,                 81P    194
-1.5707963267949,0.,0.,1.5707963267949,1.5707963267949,               81P    195
3.14159265358979,3.14159265358979,3.14159265358979,1.,1.,             81P    196
0.707106781186548,0.707106781186548,1.,1.,0.707106781186548,          81P    197
0.707106781186548,1.,1.,0.707106781186548,0.707106781186548,1.,       81P    198
1.,0.707106781186548,0.707106781186548,1.,1.,7.75,0.,24.5,8.25,       81P    199
0.,25.,7.75,7.75,24.5,8.25,8.25,25.,0.,7.75,24.5,0.,8.25,25.,         81P    200
-7.75,7.75,24.5,-8.25,8.25,25.,-7.75,0.,24.5,-8.25,0.,25.,-7.75,      81P    201
-7.75,24.5,-8.25,-8.25,25.,0.,-7.75,24.5,0.,-8.25,25.,7.75,           81P    202
-7.75,24.5,8.25,-8.25,25.,7.75,0.,24.5,8.25,0.,25.,                   81P    203
-0.0441941738241592,0.0441941738241592,-3.14159265358979,             81P    204
3.14159265358979;                                                     81P    205
128,1,1,1,1,0,0,1,0,0,-0.99775,-0.99775,0.99775,0.99775,              83P    206
-0.99775,-0.99775,0.99775,0.99775,1.,1.,1.,1.,-9.9775,-9.9775,        83P    207
25.,9.9775,-9.9775,25.,-9.9775,9.9775,25.,9.9775,9.9775,25.,          83P    208
-0.99775,0.99775,-0.99775,0.99775;                                    83P    209
128,1,8,1,2,0,1,0,0,0,-0.0345688966603055,-0.0345688966603055,        85P    210
0.0345688966603053,0.0345688966603053,-3.14159265358979,              85P    211
-3.14159265358979,-3.14159265358979,-1.5707963267949,                 85P    212
-1.5707963267949,0.,0.,1.5707963267949,1.5707963267949,               85P    213
3.14159265358979,3.14159265358979,3.14159265358979,1.,1.,             85P    214
0.707106781186548,0.707106781186548,1.,1.,0.707106781186548,          85P    215
0.707106781186548,1.,1.,0.707106781186548,0.707106781186548,1.,       85P    216
1.,0.707106781186548,0.707106781186548,1.,1.,9.9775,0.,25.,           85P    217
10.4775,0.,24.5,9.9775,9.9775,25.,10.4775,10.4775,24.5,0.,            85P    218
9.9775,25.,0.,10.4775,24.5,-9.9775,9.9775,25.,-10.4775,10.4775,       85P    219
24.5,-9.9775,0.,25.,-10.4775,0.,24.5,-9.9775,-9.9775,25.,             85P    220
-10.4775,-10.4775,24.5,0.,-9.9775,25.,0.,-10.4775,24.5,9.9775,        85P    221
-9.9775,25.,10.4775,-10.4775,24.5,9.9775,0.,25.,10.4775,0.,24.5,      85P    222
-0.0345688966603055,0.0345688966603053,-3.14159265358979,             85P    223
3.14159265358979;                                                     85P    224
502,9,-8.25,1.01030024190346D-15,0.,-7.75,-9.49069924212342D-16,      87P    225
0.5,9.9775,1.22185098952628D-15,0.,7.75,-9.49069924212342D-16,        87P    226
24.5,-7.75,0.,24.5,10.4775,-1.2830813072174D-15,0.5,10.4775,          87P    227
1.2830813072174D-15,24.5,8.25,1.01030024190346D-15,25.,9.9775,        87P    228
-1.22185098952628D-15,25.;                                            87P    229
504,15,41,87,1,87,1,43,87,1,87,2,45,87,2,87,2,47,87,3,87,3,49,        89P    230
87,4,87,5,51,87,5,87,4,53,87,5,87,2,55,87,3,87,6,57,87,6,87,6,        89P    231
59,87,7,87,7,61,87,7,87,6,63,87,8,87,8,65,87,8,87,4,67,87,9,87,       89P    232
9,69,87,9,87,7;                                                       89P    233
406,1,8HTěleso1;                                                     91P    234
314,74.5098039215686,73.7254901960784,72.9411764705882,;              93P    235
S      1G      4D     94P    235                                        T      1
