                                                                        S      1
,,31HNátrubek s vnějším závitem,11H20510100000,22HAutodesk InventorG      1
 2015,7Hunknown,32,38,7,99,15,,1.,2,2HMM,1,0.08,15H20160301.115743,0.01,G      2
10000.,14HStruska Martin,40HBupospol, Armaturka Koukol, spol. s.r.o.,11,G      3
0,15H20140923.063551;                                                   G      4
     186       1                                                00000000D      1
     186             -93       1       0                               0D      2
     514       2                                                00010000D      3
     514                       1       1                               0D      4
     510       3                                                00010000D      5
     510             -93       1       1                               0D      6
     510       4                                                00010000D      7
     510             -93       1       1                               0D      8
     510       5                                                00010000D      9
     510             -93       1       1                               0D     10
     510       6                                                00010000D     11
     510             -93       1       1                               0D     12
     510       7                                                00010000D     13
     510             -93       1       1                               0D     14
     510       8                                                00010000D     15
     510             -93       1       1                               0D     16
     510       9                                                00010000D     17
     510             -93       1       1                               0D     18
     510      10                                                00010000D     19
     510             -93       1       1                               0D     20
     508      11                                                00010000D     21
     508                       1       1                               0D     22
     508      12                                                00010000D     23
     508                       1       1                               0D     24
     508      13                                                00010000D     25
     508                       1       1                               0D     26
     508      14                                                00010000D     27
     508                       1       1                               0D     28
     508      15                                                00010000D     29
     508                       1       1                               0D     30
     508      16                                                00010000D     31
     508                       1       1                               0D     32
     508      17                                                00010000D     33
     508                       1       1                               0D     34
     508      18                                                00010000D     35
     508                       1       1                               0D     36
     508      19                                                00010000D     37
     508                       1       1                               0D     38
     508      20                                                00010000D     39
     508                       1       1                               0D     40
     126      21                                                00010000D     41
     126       0              10       0                               0D     42
     126      31                                                00010000D     43
     126       0               4       0                               0D     44
     126      35                                                00010000D     45
     126       0              12       0                               0D     46
     126      47                                                00010000D     47
     126       0              10       0                               0D     48
     126      57                                                00010000D     49
     126       0               6       0                               0D     50
     126      63                                                00010000D     51
     126       0               5       0                               0D     52
     126      68                                                00010000D     53
     126       0               4       0                               0D     54
     126      72                                                00010000D     55
     126       0               4       0                               0D     56
     126      76                                                00010000D     57
     126       0              10       0                               0D     58
     126      86                                                00010000D     59
     126       0              10       0                               0D     60
     126      96                                                00010000D     61
     126       0               3       0                               0D     62
     126      99                                                00010000D     63
     126       0              10       0                               0D     64
     126     109                                                00010000D     65
     126       0               3       0                               0D     66
     126     112                                                00010000D     67
     126       0              10       0                               0D     68
     126     122                                                00010000D     69
     126       0               3       0                               0D     70
     128     125                                                00010000D     71
     128       0     -93      19       0                               0D     72
     128     144                                                00010000D     73
     128       0     -93       4       0                               0D     74
     128     148                                                00010000D     75
     128       0     -93      17       0                               0D     76
     128     165                                                00010000D     77
     128       0     -93      18       0                               0D     78
     128     183                                                00010000D     79
     128       0     -93      15       0                               0D     80
     128     198                                                00010000D     81
     128       0     -93      14       0                               0D     82
     128     212                                                00010000D     83
     128       0     -93       4       0                               0D     84
     128     216                                                00010000D     85
     128       0     -93      15       0                               0D     86
     502     231                                                00010000D     87
     502                       6       1                               0D     88
     504     237                                                00010001D     89
     504                       4       1                               0D     90
     406     241                                                00000000D     91
     406                       1      15                               0D     92
     314     242                                                00000200D     93
     314                       1       0                               0D     94
186,3,1,0,0,1,91;                                                      1P      1
514,8,5,1,7,1,9,1,11,1,13,1,15,1,17,1,19,1;                            3P      2
510,71,1,1,21;                                                         5P      3
510,73,2,1,23,25;                                                      7P      4
510,75,1,1,27;                                                         9P      5
510,77,1,1,29;                                                        11P      6
510,79,1,1,31;                                                        13P      7
510,81,1,1,33;                                                        15P      8
510,83,2,1,35,37;                                                     17P      9
510,85,1,1,39;                                                        19P     10
508,4,0,89,1,1,0,0,89,2,1,0,0,89,3,1,0,0,89,2,0,0;                    21P     11
508,1,0,89,4,0,0;                                                     23P     12
508,1,0,89,1,0,0;                                                     25P     13
508,5,0,89,5,0,0,0,89,6,0,0,0,89,7,1,0,0,89,3,0,0,0,89,7,0,0;         27P     14
508,4,0,89,4,1,0,0,89,8,1,0,0,89,9,1,0,0,89,8,0,0;                    29P     15
508,4,0,89,10,0,0,0,89,11,1,0,0,89,9,0,0,0,89,11,0,0;                 31P     16
508,5,0,89,12,1,0,0,89,13,1,0,0,89,5,1,0,0,89,6,1,0,0,89,13,0,0;      33P     17
508,1,0,89,14,0,0;                                                    35P     18
508,1,0,89,12,0,0;                                                    37P     19
508,4,0,89,14,1,0,0,89,15,1,0,0,89,10,1,0,0,89,15,0,0;                39P     20
126,8,2,0,1,0,0,-3.14159265358979,-3.14159265358979,                  41P     21
-3.14159265358979,-1.5707963267949,-1.5707963267949,0.,0.,            41P     22
1.5707963267949,1.5707963267949,3.14159265358979,                     41P     23
3.14159265358979,3.14159265358979,1.,0.707106781186548,1.,            41P     24
0.707106781186547,1.,0.707106781186547,1.,0.707106781186548,1.,       41P     25
-27.05,3.31266959169359D-15,0.,-27.05,27.05,0.,                       41P     26
1.6563347958468D-15,27.05,0.,27.05,27.05,0.,27.05,0.,0.,27.05,        41P     27
-27.05,0.,1.6563347958468D-15,-27.05,0.,-27.05,-27.05,0.,-27.05,      41P     28
-3.31266959169359D-15,0.,-3.14159265358979,3.14159265358979,0.,       41P     29
0.,0.;                                                                41P     30
126,1,1,0,0,1,0,-0.0131922906937788,-0.0131922906937788,              43P     31
0.0131922906937788,0.0131922906937788,1.,1.,-27.05,0.,                43P     32
-3.46944695195361D-17,-26.55,0.,0.499999999999998,                    43P     33
-0.0131922906937788,0.0131922906937788,0.,0.,0.;                      43P     34
126,8,2,0,1,0,0,-3.14159265358979,-3.14159265358979,                  45P     35
-3.14159265358979,-1.5707963267949,-1.5707963267949,0.,0.,            45P     36
1.5707963267949,1.5707963267949,3.14159265358979,                     45P     37
3.14159265358979,3.14159265358979,1.,0.707106781186548,1.,            45P     38
0.707106781186547,1.,0.707106781186547,1.,0.707106781186548,1.,       45P     39
-26.55,-3.25143725173622D-15,0.499999999999998,-26.55,-26.55,         45P     40
0.499999999999998,1.62571862586811D-15,-26.55,0.499999999999998,      45P     41
26.55,-26.55,0.499999999999998,26.55,0.,0.499999999999998,26.55,      45P     42
26.55,0.499999999999998,1.62571862586811D-15,26.55,                   45P     43
0.499999999999998,-26.55,26.55,0.499999999999998,-26.55,              45P     44
3.25143725173622D-15,0.499999999999998,-3.14159265358979,             45P     45
3.14159265358979,0.,0.,0.;                                            45P     46
126,8,2,0,1,0,0,-3.14159265358979,-3.14159265358979,                  47P     47
-3.14159265358979,-1.5707963267949,-1.5707963267949,0.,0.,            47P     48
1.5707963267949,1.5707963267949,3.14159265358979,                     47P     49
3.14159265358979,3.14159265358979,1.,0.707106781186547,1.,            47P     50
0.707106781186547,1.,0.707106781186547,1.,0.707106781186547,1.,       47P     51
29.307,3.58907237426115D-15,0.,29.307,29.307,0.,                      47P     52
-1.79453618713057D-15,29.307,0.,-29.307,29.307,0.,-29.307,0.,0.,      47P     53
-29.307,-29.307,0.,-1.79453618713057D-15,-29.307,0.,29.307,           47P     54
-29.307,0.,29.307,-3.58907237426115D-15,0.,-3.14159265358979,         47P     55
3.14159265358979,0.,0.,0.;                                            47P     56
126,4,2,0,0,0,0,-3.14159265358979,-3.14159265358979,                  49P     57
-3.14159265358979,-1.5707963267949,-1.5707963267949,0.,0.,0.,1.,      49P     58
0.707106781186548,1.,0.707106781186547,1.,26.55,                      49P     59
-3.25143725173622D-15,44.5,26.55,-26.55,44.5,                         49P     60
-1.62571862586811D-15,-26.55,44.5,-26.55,-26.55,44.5,-26.55,0.,       49P     61
44.5,-3.14159265358979,0.,0.,0.,0.;                                   49P     62
126,4,2,0,0,0,0,0.,0.,0.,1.5707963267949,1.5707963267949,             51P     63
3.14159265358979,3.14159265358979,3.14159265358979,1.,                51P     64
0.707106781186547,1.,0.707106781186548,1.,-26.55,0.,44.5,-26.55,      51P     65
26.55,44.5,-1.62571862586811D-15,26.55,44.5,26.55,26.55,44.5,         51P     66
26.55,3.25143725173622D-15,44.5,0.,3.14159265358979,0.,0.,0.;         51P     67
126,1,1,0,0,1,0,-3.58060042291771,-3.58060042291771,                  53P     68
-1.92334995210792,-1.92334995210792,1.,1.,-26.55,0.,44.5,-26.55,      53P     69
0.,0.499999999999998,-3.58060042291771,-1.92334995210792,0.,0.,       53P     70
0.;                                                                   53P     71
126,1,1,0,0,1,0,-0.0119617481677191,-0.0119617481677191,              55P     72
0.0119617481677191,0.0119617481677191,1.,1.,29.307,0.,                55P     73
-3.46944695195361D-17,29.807,0.,0.5,-0.0119617481677191,              55P     74
0.0119617481677191,0.,0.,0.;                                          55P     75
126,8,2,0,1,0,0,-3.14159265358979,-3.14159265358979,                  57P     76
-3.14159265358979,-1.5707963267949,-1.5707963267949,0.,0.,            57P     77
1.5707963267949,1.5707963267949,3.14159265358979,                     57P     78
3.14159265358979,3.14159265358979,1.,0.707106781186547,1.,            57P     79
0.707106781186547,1.,0.707106781186547,1.,0.707106781186547,1.,       57P     80
29.807,-3.65030471421852D-15,0.5,29.807,-29.807,0.5,                  57P     81
-1.82515235710926D-15,-29.807,0.5,-29.807,-29.807,0.5,-29.807,        57P     82
0.,0.5,-29.807,29.807,0.5,-1.82515235710926D-15,29.807,0.5,           57P     83
29.807,29.807,0.5,29.807,3.65030471421852D-15,0.5,                    57P     84
-3.14159265358979,3.14159265358979,0.,0.,0.;                          57P     85
126,8,2,0,1,0,0,-3.14159265358979,-3.14159265358979,                  59P     86
-3.14159265358979,-1.5707963267949,-1.5707963267949,0.,0.,            59P     87
1.5707963267949,1.5707963267949,3.14159265358979,                     59P     88
3.14159265358979,3.14159265358979,1.,0.707106781186547,1.,            59P     89
0.707106781186547,1.,0.707106781186547,1.,0.707106781186547,1.,       59P     90
29.807,3.65030471421852D-15,44.5,29.807,29.807,44.5,                  59P     91
-1.82515235710926D-15,29.807,44.5,-29.807,29.807,44.5,-29.807,        59P     92
0.,44.5,-29.807,-29.807,44.5,-1.82515235710926D-15,-29.807,44.5,      59P     93
29.807,-29.807,44.5,29.807,-3.65030471421852D-15,44.5,                59P     94
-3.14159265358979,3.14159265358979,0.,0.,0.;                          59P     95
126,1,1,0,0,1,0,-1.49293790049317,-1.49293790049317,                  61P     96
-0.0167745831516087,-0.0167745831516087,1.,1.,29.807,0.,44.5,         61P     97
29.807,0.,0.5,-1.49293790049317,-0.0167745831516087,0.,0.,0.;         61P     98
126,8,2,0,1,0,0,-3.14159265358979,-3.14159265358979,                  63P     99
-3.14159265358979,-1.5707963267949,-1.5707963267949,0.,0.,            63P    100
1.5707963267949,1.5707963267949,3.14159265358979,                     63P    101
3.14159265358979,3.14159265358979,1.,0.707106781186548,1.,            63P    102
0.707106781186547,1.,0.707106781186547,1.,0.707106781186548,1.,       63P    103
27.05,3.31266959169359D-15,45.,27.05,27.05,45.,                       63P    104
-1.6563347958468D-15,27.05,45.,-27.05,27.05,45.,-27.05,0.,45.,        63P    105
-27.05,-27.05,45.,-1.6563347958468D-15,-27.05,45.,27.05,-27.05,       63P    106
45.,27.05,-3.31266959169359D-15,45.,-3.14159265358979,                63P    107
3.14159265358979,0.,0.,0.;                                            63P    108
126,1,1,0,0,1,0,-0.013192290693779,-0.013192290693779,                65P    109
0.013192290693779,0.013192290693779,1.,1.,27.05,0.,45.,26.55,0.,      65P    110
44.5,-0.013192290693779,0.013192290693779,0.,0.,0.;                   65P    111
126,8,2,0,1,0,0,-3.14159265358979,-3.14159265358979,                  67P    112
-3.14159265358979,-1.5707963267949,-1.5707963267949,0.,0.,            67P    113
1.5707963267949,1.5707963267949,3.14159265358979,                     67P    114
3.14159265358979,3.14159265358979,1.,0.707106781186547,1.,            67P    115
0.707106781186547,1.,0.707106781186547,1.,0.707106781186547,1.,       67P    116
29.307,-3.58907237426115D-15,45.,29.307,-29.307,45.,                  67P    117
-1.79453618713057D-15,-29.307,45.,-29.307,-29.307,45.,-29.307,        67P    118
0.,45.,-29.307,29.307,45.,-1.79453618713057D-15,29.307,45.,           67P    119
29.307,29.307,45.,29.307,3.58907237426115D-15,45.,                    67P    120
-3.14159265358979,3.14159265358979,0.,0.,0.;                          67P    121
126,1,1,0,0,1,0,-0.0119617481677192,-0.0119617481677192,              69P    122
0.011961748167719,0.011961748167719,1.,1.,29.307,0.,45.,29.807,       69P    123
0.,44.5,-0.0119617481677192,0.011961748167719,0.,0.,0.;               69P    124
128,1,8,1,2,0,1,0,0,0,-0.0131922906937788,-0.0131922906937788,        71P    125
0.0131922906937788,0.0131922906937788,-3.14159265358979,              71P    126
-3.14159265358979,-3.14159265358979,-1.5707963267949,                 71P    127
-1.5707963267949,0.,0.,1.5707963267949,1.5707963267949,               71P    128
3.14159265358979,3.14159265358979,3.14159265358979,1.,1.,             71P    129
0.707106781186548,0.707106781186548,1.,1.,0.707106781186548,          71P    130
0.707106781186548,1.,1.,0.707106781186548,0.707106781186548,1.,       71P    131
1.,0.707106781186548,0.707106781186548,1.,1.,-26.55,0.,               71P    132
0.499999999999998,-27.05,0.,-3.46944695195361D-17,-26.55,26.55,       71P    133
0.499999999999998,-27.05,27.05,-3.46944695195361D-17,0.,26.55,        71P    134
0.499999999999998,0.,27.05,-3.46944695195361D-17,26.55,26.55,         71P    135
0.499999999999998,27.05,27.05,-3.46944695195361D-17,26.55,0.,         71P    136
0.499999999999998,27.05,0.,-3.46944695195361D-17,26.55,-26.55,        71P    137
0.499999999999998,27.05,-27.05,-3.46944695195361D-17,0.,-26.55,       71P    138
0.499999999999998,0.,-27.05,-3.46944695195361D-17,-26.55,-26.55,      71P    139
0.499999999999998,-27.05,-27.05,-3.46944695195361D-17,-26.55,0.,      71P    140
0.499999999999998,-27.05,0.,-3.46944695195361D-17,                    71P    141
-0.0131922906937788,0.0131922906937788,-3.14159265358979,             71P    142
3.14159265358979;                                                     71P    143
128,1,1,1,1,0,0,1,0,0,-2.9307,-2.9307,2.9307,2.9307,-2.9307,          73P    144
-2.9307,2.9307,2.9307,1.,1.,1.,1.,29.307,-29.307,0.,-29.307,          73P    145
-29.307,0.,29.307,29.307,0.,-29.307,29.307,0.,-2.9307,2.9307,         73P    146
-2.9307,2.9307;                                                       73P    147
128,1,8,1,2,0,1,0,0,0,-3.58060042291771,-3.58060042291771,            75P    148
-1.92334995210792,-1.92334995210792,-3.14159265358979,                75P    149
-3.14159265358979,-3.14159265358979,-1.5707963267949,                 75P    150
-1.5707963267949,0.,0.,1.5707963267949,1.5707963267949,               75P    151
3.14159265358979,3.14159265358979,3.14159265358979,1.,1.,             75P    152
0.707106781186548,0.707106781186548,1.,1.,0.707106781186548,          75P    153
0.707106781186548,1.,1.,0.707106781186548,0.707106781186548,1.,       75P    154
1.,0.707106781186548,0.707106781186548,1.,1.,-26.55,0.,               75P    155
0.499999999999998,-26.55,0.,44.5,-26.55,-26.55,                       75P    156
0.499999999999998,-26.55,-26.55,44.5,0.,-26.55,                       75P    157
0.499999999999998,0.,-26.55,44.5,26.55,-26.55,0.499999999999998,      75P    158
26.55,-26.55,44.5,26.55,0.,0.499999999999998,26.55,0.,44.5,           75P    159
26.55,26.55,0.499999999999998,26.55,26.55,44.5,0.,26.55,              75P    160
0.499999999999998,0.,26.55,44.5,-26.55,26.55,0.499999999999998,       75P    161
-26.55,26.55,44.5,-26.55,0.,0.499999999999998,-26.55,0.,44.5,         75P    162
-3.58060042291771,-1.92334995210792,-3.14159265358979,                75P    163
3.14159265358979;                                                     75P    164
128,1,8,1,2,0,1,0,0,0,-0.0119617481677191,-0.0119617481677191,        77P    165
0.0119617481677191,0.0119617481677191,-3.14159265358979,              77P    166
-3.14159265358979,-3.14159265358979,-1.5707963267949,                 77P    167
-1.5707963267949,0.,0.,1.5707963267949,1.5707963267949,               77P    168
3.14159265358979,3.14159265358979,3.14159265358979,1.,1.,             77P    169
0.707106781186548,0.707106781186548,1.,1.,0.707106781186548,          77P    170
0.707106781186548,1.,1.,0.707106781186548,0.707106781186548,1.,       77P    171
1.,0.707106781186548,0.707106781186548,1.,1.,29.307,0.,               77P    172
-3.46944695195361D-17,29.807,0.,0.5,29.307,-29.307,                   77P    173
-3.46944695195361D-17,29.807,-29.807,0.5,0.,-29.307,                  77P    174
-3.46944695195361D-17,0.,-29.807,0.5,-29.307,-29.307,                 77P    175
-3.46944695195361D-17,-29.807,-29.807,0.5,-29.307,0.,                 77P    176
-3.46944695195361D-17,-29.807,0.,0.5,-29.307,29.307,                  77P    177
-3.46944695195361D-17,-29.807,29.807,0.5,0.,29.307,                   77P    178
-3.46944695195361D-17,0.,29.807,0.5,29.307,29.307,                    77P    179
-3.46944695195361D-17,29.807,29.807,0.5,29.307,0.,                    77P    180
-3.46944695195361D-17,29.807,0.,0.5,-0.0119617481677191,              77P    181
0.0119617481677191,-3.14159265358979,3.14159265358979;                77P    182
128,1,8,1,2,0,1,0,0,0,0.0167745831516087,0.0167745831516087,          79P    183
1.49293790049317,1.49293790049317,-3.14159265358979,                  79P    184
-3.14159265358979,-3.14159265358979,-1.5707963267949,                 79P    185
-1.5707963267949,0.,0.,1.5707963267949,1.5707963267949,               79P    186
3.14159265358979,3.14159265358979,3.14159265358979,1.,1.,             79P    187
0.707106781186548,0.707106781186548,1.,1.,0.707106781186548,          79P    188
0.707106781186548,1.,1.,0.707106781186548,0.707106781186548,1.,       79P    189
1.,0.707106781186548,0.707106781186548,1.,1.,29.807,0.,44.5,          79P    190
29.807,0.,0.5,29.807,29.807,44.5,29.807,29.807,0.5,0.,29.807,         79P    191
44.5,0.,29.807,0.5,-29.807,29.807,44.5,-29.807,29.807,0.5,            79P    192
-29.807,0.,44.5,-29.807,0.,0.5,-29.807,-29.807,44.5,-29.807,          79P    193
-29.807,0.5,0.,-29.807,44.5,0.,-29.807,0.5,29.807,-29.807,44.5,       79P    194
29.807,-29.807,0.5,29.807,0.,44.5,29.807,0.,0.5,                      79P    195
0.0167745831516087,1.49293790049317,-3.14159265358979,                79P    196
3.14159265358979;                                                     79P    197
128,1,8,1,2,0,1,0,0,0,-0.013192290693779,-0.013192290693779,          81P    198
0.013192290693779,0.013192290693779,-3.14159265358979,                81P    199
-3.14159265358979,-3.14159265358979,-1.5707963267949,                 81P    200
-1.5707963267949,0.,0.,1.5707963267949,1.5707963267949,               81P    201
3.14159265358979,3.14159265358979,3.14159265358979,1.,1.,             81P    202
0.707106781186548,0.707106781186548,1.,1.,0.707106781186548,          81P    203
0.707106781186548,1.,1.,0.707106781186548,0.707106781186548,1.,       81P    204
1.,0.707106781186548,0.707106781186548,1.,1.,26.55,0.,44.5,           81P    205
27.05,0.,45.,26.55,26.55,44.5,27.05,27.05,45.,0.,26.55,44.5,0.,       81P    206
27.05,45.,-26.55,26.55,44.5,-27.05,27.05,45.,-26.55,0.,44.5,          81P    207
-27.05,0.,45.,-26.55,-26.55,44.5,-27.05,-27.05,45.,0.,-26.55,         81P    208
44.5,0.,-27.05,45.,26.55,-26.55,44.5,27.05,-27.05,45.,26.55,0.,       81P    209
44.5,27.05,0.,45.,-0.013192290693779,0.013192290693779,               81P    210
-3.14159265358979,3.14159265358979;                                   81P    211
128,1,1,1,1,0,0,1,0,0,-2.9307,-2.9307,2.9307,2.9307,-2.9307,          83P    212
-2.9307,2.9307,2.9307,1.,1.,1.,1.,-29.307,-29.307,45.,29.307,         83P    213
-29.307,45.,-29.307,29.307,45.,29.307,29.307,45.,-2.9307,2.9307,      83P    214
-2.9307,2.9307;                                                       83P    215
128,1,8,1,2,0,1,0,0,0,-0.011961748167719,-0.011961748167719,          85P    216
0.0119617481677192,0.0119617481677192,-3.14159265358979,              85P    217
-3.14159265358979,-3.14159265358979,-1.5707963267949,                 85P    218
-1.5707963267949,0.,0.,1.5707963267949,1.5707963267949,               85P    219
3.14159265358979,3.14159265358979,3.14159265358979,1.,1.,             85P    220
0.707106781186548,0.707106781186548,1.,1.,0.707106781186548,          85P    221
0.707106781186548,1.,1.,0.707106781186548,0.707106781186548,1.,       85P    222
1.,0.707106781186548,0.707106781186548,1.,1.,29.307,0.,45.,           85P    223
29.807,0.,44.5,29.307,29.307,45.,29.807,29.807,44.5,0.,29.307,        85P    224
45.,0.,29.807,44.5,-29.307,29.307,45.,-29.807,29.807,44.5,            85P    225
-29.307,0.,45.,-29.807,0.,44.5,-29.307,-29.307,45.,-29.807,           85P    226
-29.807,44.5,0.,-29.307,45.,0.,-29.807,44.5,29.307,-29.307,45.,       85P    227
29.807,-29.807,44.5,29.307,0.,45.,29.807,0.,44.5,                     85P    228
-0.011961748167719,0.0119617481677192,-3.14159265358979,              85P    229
3.14159265358979;                                                     85P    230
502,9,-27.05,3.31256018708953D-15,0.,-26.55,                          87P    231
-3.25132986939841D-15,0.499999999999998,29.307,                       87P    232
3.58895384114724D-15,0.,26.55,-3.25132986939841D-15,44.5,-26.55,      87P    233
0.,44.5,29.807,-3.65018415883836D-15,0.5,29.807,                      87P    234
3.65018415883836D-15,44.5,27.05,3.31256018708953D-15,45.,29.307,      87P    235
-3.58895384114724D-15,45.;                                            87P    236
504,15,41,87,1,87,1,43,87,1,87,2,45,87,2,87,2,47,87,3,87,3,49,        89P    237
87,4,87,5,51,87,5,87,4,53,87,5,87,2,55,87,3,87,6,57,87,6,87,6,        89P    238
59,87,7,87,7,61,87,7,87,6,63,87,8,87,8,65,87,8,87,4,67,87,9,87,       89P    239
9,69,87,9,87,7;                                                       89P    240
406,1,8HTěleso1;                                                     91P    241
314,74.5098039215686,73.7254901960784,72.9411764705882,;              93P    242
S      1G      4D     94P    242                                        T      1
