ISO-10303-21;
HEADER;
/* Generated by software containing ST-Developer
 * from STEP Tools, Inc. (www.steptools.com) 
 */

FILE_DESCRIPTION(
/* description */ ('N\X\E1trubek s vn\X2\011B\X0\j\X2\016100ED\X0\m z\X\E1
vitem'),
/* implementation_level */ '2;1');

FILE_NAME(
/* name */ 
'C:\\Vault_Workspace\\DATA\\Katalog Bupospol\\2 Potrubn\X\ED d\X\EDly\\
2.0 \X2\0160\X0\rouben\X\ED\\20510\\20510\\20510 G2.stp',
/* time_stamp */ '2016-01-11T09:41:36+01:00',
/* author */ ('Struska'),
/* organization */ ('Bupospol'),
/* preprocessor_version */ 'ST-DEVELOPER v15.6',
/* originating_system */ 'Autodesk Inventor 2015',
/* authorisation */ '');

FILE_SCHEMA (('CONFIG_CONTROL_DESIGN'));
ENDSEC;

DATA;
#10=MECHANICAL_DESIGN_GEOMETRIC_PRESENTATION_REPRESENTATION('',(#100,#102,
#99,#101,#94,#95,#98,#97,#96),#191);
#11=SHAPE_REPRESENTATION_RELATIONSHIP('SRR','None',#200,#12);
#12=ADVANCED_BREP_SHAPE_REPRESENTATION($,(#13),#190);
#13=MANIFOLD_SOLID_BREP('T\X2\011B\X0\leso1',#111);
#14=CYLINDRICAL_SURFACE('',#118,26.55);
#15=CYLINDRICAL_SURFACE('',#122,29.807);
#16=PLANE('',#116);
#17=PLANE('',#126);
#18=FACE_BOUND('',#35,.T.);
#19=FACE_BOUND('',#37,.T.);
#20=FACE_BOUND('',#39,.T.);
#21=FACE_BOUND('',#41,.T.);
#22=FACE_BOUND('',#43,.T.);
#23=FACE_BOUND('',#45,.T.);
#24=FACE_BOUND('',#47,.T.);
#25=FACE_BOUND('',#49,.T.);
#26=FACE_OUTER_BOUND('',#34,.T.);
#27=FACE_OUTER_BOUND('',#36,.T.);
#28=FACE_OUTER_BOUND('',#38,.T.);
#29=FACE_OUTER_BOUND('',#40,.T.);
#30=FACE_OUTER_BOUND('',#42,.T.);
#31=FACE_OUTER_BOUND('',#44,.T.);
#32=FACE_OUTER_BOUND('',#46,.T.);
#33=FACE_OUTER_BOUND('',#48,.T.);
#34=EDGE_LOOP('',(#74));
#35=EDGE_LOOP('',(#75));
#36=EDGE_LOOP('',(#76));
#37=EDGE_LOOP('',(#77));
#38=EDGE_LOOP('',(#78));
#39=EDGE_LOOP('',(#79));
#40=EDGE_LOOP('',(#80));
#41=EDGE_LOOP('',(#81));
#42=EDGE_LOOP('',(#82));
#43=EDGE_LOOP('',(#83));
#44=EDGE_LOOP('',(#84));
#45=EDGE_LOOP('',(#85));
#46=EDGE_LOOP('',(#86));
#47=EDGE_LOOP('',(#87));
#48=EDGE_LOOP('',(#88));
#49=EDGE_LOOP('',(#89));
#50=CIRCLE('',#114,26.55);
#51=CIRCLE('',#115,27.05);
#52=CIRCLE('',#117,29.307);
#53=CIRCLE('',#119,26.55);
#54=CIRCLE('',#121,29.807);
#55=CIRCLE('',#123,29.807);
#56=CIRCLE('',#125,27.05);
#57=CIRCLE('',#127,29.307);
#58=VERTEX_POINT('',#165);
#59=VERTEX_POINT('',#167);
#60=VERTEX_POINT('',#170);
#61=VERTEX_POINT('',#173);
#62=VERTEX_POINT('',#176);
#63=VERTEX_POINT('',#179);
#64=VERTEX_POINT('',#182);
#65=VERTEX_POINT('',#185);
#66=EDGE_CURVE('',#58,#58,#50,.T.);
#67=EDGE_CURVE('',#59,#59,#51,.T.);
#68=EDGE_CURVE('',#60,#60,#52,.T.);
#69=EDGE_CURVE('',#61,#61,#53,.T.);
#70=EDGE_CURVE('',#62,#62,#54,.T.);
#71=EDGE_CURVE('',#63,#63,#55,.T.);
#72=EDGE_CURVE('',#64,#64,#56,.T.);
#73=EDGE_CURVE('',#65,#65,#57,.T.);
#74=ORIENTED_EDGE('',*,*,#66,.T.);
#75=ORIENTED_EDGE('',*,*,#67,.T.);
#76=ORIENTED_EDGE('',*,*,#68,.F.);
#77=ORIENTED_EDGE('',*,*,#67,.F.);
#78=ORIENTED_EDGE('',*,*,#69,.F.);
#79=ORIENTED_EDGE('',*,*,#66,.F.);
#80=ORIENTED_EDGE('',*,*,#70,.T.);
#81=ORIENTED_EDGE('',*,*,#68,.T.);
#82=ORIENTED_EDGE('',*,*,#71,.F.);
#83=ORIENTED_EDGE('',*,*,#70,.F.);
#84=ORIENTED_EDGE('',*,*,#69,.T.);
#85=ORIENTED_EDGE('',*,*,#72,.T.);
#86=ORIENTED_EDGE('',*,*,#73,.F.);
#87=ORIENTED_EDGE('',*,*,#72,.F.);
#88=ORIENTED_EDGE('',*,*,#71,.T.);
#89=ORIENTED_EDGE('',*,*,#73,.T.);
#90=CONICAL_SURFACE('',#113,26.8,45.);
#91=CONICAL_SURFACE('',#120,29.557,44.9999999999999);
#92=CONICAL_SURFACE('',#124,26.8,44.9999999999995);
#93=CONICAL_SURFACE('',#128,29.557,45.);
#94=STYLED_ITEM('',(#209),#103);
#95=STYLED_ITEM('',(#209),#104);
#96=STYLED_ITEM('',(#209),#105);
#97=STYLED_ITEM('',(#209),#106);
#98=STYLED_ITEM('',(#209),#107);
#99=STYLED_ITEM('',(#209),#108);
#100=STYLED_ITEM('',(#209),#109);
#101=STYLED_ITEM('',(#209),#110);
#102=STYLED_ITEM('',(#209),#13);
#103=ADVANCED_FACE('',(#26,#18),#90,.F.);
#104=ADVANCED_FACE('',(#27,#19),#16,.F.);
#105=ADVANCED_FACE('',(#28,#20),#14,.F.);
#106=ADVANCED_FACE('',(#29,#21),#91,.T.);
#107=ADVANCED_FACE('',(#30,#22),#15,.T.);
#108=ADVANCED_FACE('',(#31,#23),#92,.F.);
#109=ADVANCED_FACE('',(#32,#24),#17,.T.);
#110=ADVANCED_FACE('',(#33,#25),#93,.T.);
#111=CLOSED_SHELL('',(#103,#104,#105,#106,#107,#108,#109,#110));
#112=AXIS2_PLACEMENT_3D('placement',#163,#129,#130);
#113=AXIS2_PLACEMENT_3D('',#164,#131,#132);
#114=AXIS2_PLACEMENT_3D('',#166,#133,#134);
#115=AXIS2_PLACEMENT_3D('',#168,#135,#136);
#116=AXIS2_PLACEMENT_3D('',#169,#137,#138);
#117=AXIS2_PLACEMENT_3D('',#171,#139,#140);
#118=AXIS2_PLACEMENT_3D('',#172,#141,#142);
#119=AXIS2_PLACEMENT_3D('',#174,#143,#144);
#120=AXIS2_PLACEMENT_3D('',#175,#145,#146);
#121=AXIS2_PLACEMENT_3D('',#177,#147,#148);
#122=AXIS2_PLACEMENT_3D('',#178,#149,#150);
#123=AXIS2_PLACEMENT_3D('',#180,#151,#152);
#124=AXIS2_PLACEMENT_3D('',#181,#153,#154);
#125=AXIS2_PLACEMENT_3D('',#183,#155,#156);
#126=AXIS2_PLACEMENT_3D('',#184,#157,#158);
#127=AXIS2_PLACEMENT_3D('',#186,#159,#160);
#128=AXIS2_PLACEMENT_3D('',#187,#161,#162);
#129=DIRECTION('axis',(0.,0.,1.));
#130=DIRECTION('refdir',(1.,0.,0.));
#131=DIRECTION('center_axis',(0.,0.,-1.));
#132=DIRECTION('ref_axis',(1.,0.,0.));
#133=DIRECTION('center_axis',(0.,0.,1.));
#134=DIRECTION('ref_axis',(1.,0.,0.));
#135=DIRECTION('center_axis',(0.,0.,-1.));
#136=DIRECTION('ref_axis',(1.,0.,0.));
#137=DIRECTION('center_axis',(0.,0.,1.));
#138=DIRECTION('ref_axis',(1.,0.,0.));
#139=DIRECTION('center_axis',(0.,0.,1.));
#140=DIRECTION('ref_axis',(-1.,0.,0.));
#141=DIRECTION('center_axis',(0.,0.,1.));
#142=DIRECTION('ref_axis',(1.,0.,0.));
#143=DIRECTION('center_axis',(0.,0.,-1.));
#144=DIRECTION('ref_axis',(-1.,0.,0.));
#145=DIRECTION('center_axis',(0.,0.,1.));
#146=DIRECTION('ref_axis',(-1.,0.,0.));
#147=DIRECTION('center_axis',(0.,0.,-1.));
#148=DIRECTION('ref_axis',(-1.,0.,0.));
#149=DIRECTION('center_axis',(0.,0.,1.));
#150=DIRECTION('ref_axis',(-1.,0.,0.));
#151=DIRECTION('center_axis',(0.,0.,1.));
#152=DIRECTION('ref_axis',(-1.,0.,0.));
#153=DIRECTION('center_axis',(0.,0.,1.));
#154=DIRECTION('ref_axis',(-1.,0.,0.));
#155=DIRECTION('center_axis',(0.,0.,1.));
#156=DIRECTION('ref_axis',(-1.,0.,0.));
#157=DIRECTION('center_axis',(0.,0.,1.));
#158=DIRECTION('ref_axis',(1.,0.,0.));
#159=DIRECTION('center_axis',(0.,0.,-1.));
#160=DIRECTION('ref_axis',(-1.,0.,0.));
#161=DIRECTION('center_axis',(0.,0.,-1.));
#162=DIRECTION('ref_axis',(-1.,0.,0.));
#163=CARTESIAN_POINT('',(0.,0.,0.));
#164=CARTESIAN_POINT('Origin',(0.,0.,0.249999999999999));
#165=CARTESIAN_POINT('',(-26.55,-3.25132986939841E-15,0.499999999999998));
#166=CARTESIAN_POINT('Origin',(0.,0.,0.499999999999998));
#167=CARTESIAN_POINT('',(-27.05,3.31256018708953E-15,0.));
#168=CARTESIAN_POINT('Origin',(0.,0.,0.));
#169=CARTESIAN_POINT('Origin',(-2.29069171386642E-15,0.,0.));
#170=CARTESIAN_POINT('',(29.307,3.58895384114724E-15,0.));
#171=CARTESIAN_POINT('Origin',(0.,0.,0.));
#172=CARTESIAN_POINT('Origin',(0.,0.,-50.5649412284652));
#173=CARTESIAN_POINT('',(26.55,-3.25132986939841E-15,44.5));
#174=CARTESIAN_POINT('Origin',(0.,0.,44.5));
#175=CARTESIAN_POINT('Origin',(0.,0.,0.25));
#176=CARTESIAN_POINT('',(29.807,-3.65018415883836E-15,0.5));
#177=CARTESIAN_POINT('Origin',(0.,0.,0.5));
#178=CARTESIAN_POINT('Origin',(0.,0.,0.));
#179=CARTESIAN_POINT('',(29.807,3.65018415883836E-15,44.5));
#180=CARTESIAN_POINT('Origin',(0.,0.,44.5));
#181=CARTESIAN_POINT('Origin',(0.,0.,44.75));
#182=CARTESIAN_POINT('',(27.05,3.31256018708953E-15,45.));
#183=CARTESIAN_POINT('Origin',(0.,0.,45.));
#184=CARTESIAN_POINT('Origin',(-2.29069171386642E-15,0.,45.));
#185=CARTESIAN_POINT('',(29.307,-3.58895384114724E-15,45.));
#186=CARTESIAN_POINT('Origin',(0.,0.,45.));
#187=CARTESIAN_POINT('Origin',(0.,0.,44.75));
#188=UNCERTAINTY_MEASURE_WITH_UNIT(LENGTH_MEASURE(0.01),#192,
'DISTANCE_ACCURACY_VALUE',
'Maximum model space distance between geometric entities at asserted c
onnectivities');
#189=UNCERTAINTY_MEASURE_WITH_UNIT(LENGTH_MEASURE(1.E-6),#192,
'DISTANCE_ACCURACY_VALUE',
'Maximum model space distance between geometric entities at asserted c
onnectivities');
#190=(
GEOMETRIC_REPRESENTATION_CONTEXT(3)
GLOBAL_UNCERTAINTY_ASSIGNED_CONTEXT((#188))
GLOBAL_UNIT_ASSIGNED_CONTEXT((#192,#195,#193))
REPRESENTATION_CONTEXT('','3D')
);
#191=(
GEOMETRIC_REPRESENTATION_CONTEXT(3)
GLOBAL_UNCERTAINTY_ASSIGNED_CONTEXT((#189))
GLOBAL_UNIT_ASSIGNED_CONTEXT((#192,#195,#193))
REPRESENTATION_CONTEXT('','3D')
);
#192=(
LENGTH_UNIT()
NAMED_UNIT(*)
SI_UNIT(.MILLI.,.METRE.)
);
#193=(
NAMED_UNIT(*)
SI_UNIT($,.STERADIAN.)
SOLID_ANGLE_UNIT()
);
#194=DIMENSIONAL_EXPONENTS(0.,0.,0.,0.,0.,0.,0.);
#195=(
CONVERSION_BASED_UNIT('degree',#197)
NAMED_UNIT(#194)
PLANE_ANGLE_UNIT()
);
#196=(
NAMED_UNIT(*)
PLANE_ANGLE_UNIT()
SI_UNIT($,.RADIAN.)
);
#197=PLANE_ANGLE_MEASURE_WITH_UNIT(PLANE_ANGLE_MEASURE(0.01745329252),#196);
#198=SHAPE_DEFINITION_REPRESENTATION(#199,#200);
#199=PRODUCT_DEFINITION_SHAPE('',$,#202);
#200=SHAPE_REPRESENTATION('',(#112),#190);
#201=DESIGN_CONTEXT('part definition',#206,'design');
#202=PRODUCT_DEFINITION('20510100000','20510100000',#203,#201);
#203=PRODUCT_DEFINITION_FORMATION('',$,#208);
#204=PRODUCT_RELATED_PRODUCT_CATEGORY('20510100000','20510100000',(#208));
#205=APPLICATION_PROTOCOL_DEFINITION('international standard',
'ap203_configuration_controlled_3d_design_of_mechanical_parts_and_asse
mblies_mim_lf',2004,#206);
#206=APPLICATION_CONTEXT(
'Configuration Controlled 3D Design of Mechanical Parts and Assemblies');
#207=MECHANICAL_CONTEXT('part definition',#206,'mechanical');
#208=PRODUCT('20510100000','20510100000',$,(#207));
#209=PRESENTATION_STYLE_ASSIGNMENT((#210));
#210=SURFACE_STYLE_USAGE(.BOTH.,#211);
#211=SURFACE_SIDE_STYLE($,(#212));
#212=SURFACE_STYLE_FILL_AREA(#213);
#213=FILL_AREA_STYLE($,(#214));
#214=FILL_AREA_STYLE_COLOUR($,#215);
#215=COLOUR_RGB('',0.745098039215686,0.737254901960784,0.729411764705882);
ENDSEC;
END-ISO-10303-21;
