                                                                        S      1
,,31HNátrubek s vnitřním závitem,11H20520020000,22HAutodesk InventorG      1
 2015,7Hunknown,32,38,7,99,15,,1.,2,2HMM,1,0.08,15H20160301.124417,0.01,G      2
10000.,14HStruska Martin,40HBupospol, Armaturka Koukol, spol. s.r.o.,11,G      3
0,15H20140923.063551;                                                   G      4
     186       1                                                00000000D      1
     186             -93       1       0                               0D      2
     514       2                                                00010000D      3
     514                       1       1                               0D      4
     510       3                                                00010000D      5
     510             -93       1       1                               0D      6
     510       4                                                00010000D      7
     510             -93       1       1                               0D      8
     510       5                                                00010000D      9
     510             -93       1       1                               0D     10
     510       6                                                00010000D     11
     510             -93       1       1                               0D     12
     510       7                                                00010000D     13
     510             -93       1       1                               0D     14
     510       8                                                00010000D     15
     510             -93       1       1                               0D     16
     510       9                                                00010000D     17
     510             -93       1       1                               0D     18
     510      10                                                00010000D     19
     510             -93       1       1                               0D     20
     508      11                                                00010000D     21
     508                       1       1                               0D     22
     508      12                                                00010000D     23
     508                       1       1                               0D     24
     508      13                                                00010000D     25
     508                       1       1                               0D     26
     508      14                                                00010000D     27
     508                       1       1                               0D     28
     508      15                                                00010000D     29
     508                       1       1                               0D     30
     508      16                                                00010000D     31
     508                       1       1                               0D     32
     508      17                                                00010000D     33
     508                       1       1                               0D     34
     508      18                                                00010000D     35
     508                       1       1                               0D     36
     508      19                                                00010000D     37
     508                       1       1                               0D     38
     508      20                                                00010000D     39
     508                       1       1                               0D     40
     126      21                                                00010000D     41
     126       0              10       0                               0D     42
     126      31                                                00010000D     43
     126       0               4       0                               0D     44
     126      35                                                00010000D     45
     126       0              10       0                               0D     46
     126      45                                                00010000D     47
     126       0              10       0                               0D     48
     126      55                                                00010000D     49
     126       0               6       0                               0D     50
     126      61                                                00010000D     51
     126       0               6       0                               0D     52
     126      67                                                00010000D     53
     126       0               3       0                               0D     54
     126      70                                                00010000D     55
     126       0               4       0                               0D     56
     126      74                                                00010000D     57
     126       0               9       0                               0D     58
     126      83                                                00010000D     59
     126       0              10       0                               0D     60
     126      93                                                00010000D     61
     126       0               3       0                               0D     62
     126      96                                                00010000D     63
     126       0              10       0                               0D     64
     126     106                                                00010000D     65
     126       0               3       0                               0D     66
     126     109                                                00010000D     67
     126       0              10       0                               0D     68
     126     119                                                00010000D     69
     126       0               3       0                               0D     70
     128     122                                                00010000D     71
     128       0     -93      18       0                               0D     72
     128     140                                                00010000D     73
     128       0     -93       3       0                               0D     74
     128     143                                                00010000D     75
     128       0     -93      15       0                               0D     76
     128     158                                                00010000D     77
     128       0     -93      16       0                               0D     78
     128     174                                                00010000D     79
     128       0     -93      13       0                               0D     80
     128     187                                                00010000D     81
     128       0     -93      15       0                               0D     82
     128     202                                                00010000D     83
     128       0     -93       3       0                               0D     84
     128     205                                                00010000D     85
     128       0     -93      13       0                               0D     86
     502     218                                                00010000D     87
     502                       5       1                               0D     88
     504     223                                                00010001D     89
     504                       4       1                               0D     90
     406     227                                                00000000D     91
     406                       1      15                               0D     92
     314     228                                                00000200D     93
     314                       1       0                               0D     94
186,3,1,0,0,1,91;                                                      1P      1
514,8,5,1,7,1,9,1,11,1,13,1,15,1,17,1,19,1;                            3P      2
510,71,1,1,21;                                                         5P      3
510,73,2,1,23,25;                                                      7P      4
510,75,1,1,27;                                                         9P      5
510,77,1,1,29;                                                        11P      6
510,79,1,1,31;                                                        13P      7
510,81,1,1,33;                                                        15P      8
510,83,2,1,35,37;                                                     17P      9
510,85,1,1,39;                                                        19P     10
508,4,0,89,1,1,0,0,89,2,1,0,0,89,3,1,0,0,89,2,0,0;                    21P     11
508,1,0,89,4,0,0;                                                     23P     12
508,1,0,89,1,0,0;                                                     25P     13
508,5,0,89,5,0,0,0,89,6,0,0,0,89,7,1,0,0,89,3,0,0,0,89,7,0,0;         27P     14
508,4,0,89,4,1,0,0,89,8,1,0,0,89,9,1,0,0,89,8,0,0;                    29P     15
508,4,0,89,10,0,0,0,89,11,1,0,0,89,9,0,0,0,89,11,0,0;                 31P     16
508,5,0,89,12,1,0,0,89,13,1,0,0,89,5,1,0,0,89,6,1,0,0,89,13,0,0;      33P     17
508,1,0,89,14,0,0;                                                    35P     18
508,1,0,89,12,0,0;                                                    37P     19
508,4,0,89,14,1,0,0,89,15,1,0,0,89,10,1,0,0,89,15,0,0;                39P     20
126,8,2,0,1,0,0,-3.14159265358979,-3.14159265358979,                  41P     21
-3.14159265358979,-1.5707963267949,-1.5707963267949,0.,0.,            41P     22
1.5707963267949,1.5707963267949,3.14159265358979,                     41P     23
3.14159265358979,3.14159265358979,1.,0.707106781186548,1.,            41P     24
0.707106781186547,1.,0.707106781186547,1.,0.707106781186548,1.,       41P     25
-6.2225,7.62036470769441D-16,0.,-6.2225,6.2225,0.,                    41P     26
3.8101823538472D-16,6.2225,0.,6.2225,6.2225,0.,6.2225,0.,0.,          41P     27
6.2225,-6.2225,0.,3.8101823538472D-16,-6.2225,0.,-6.2225,             41P     28
-6.2225,0.,-6.2225,-7.62036470769441D-16,0.,-3.14159265358979,        41P     29
3.14159265358979,0.,0.,0.;                                            41P     30
126,1,1,0,0,1,0,-0.0591968841512389,-0.0591968841512389,              43P     31
0.0591968841512389,0.0591968841512389,1.,1.,-6.2225,0.,               43P     32
-1.38777878078145D-16,-5.7225,0.,0.5,-0.0591968841512389,             43P     33
0.0591968841512389,0.,0.,0.;                                          43P     34
126,8,2,0,1,0,0,-3.14159265358979,-3.14159265358979,                  45P     35
-3.14159265358979,-1.5707963267949,-1.5707963267949,0.,0.,            45P     36
1.5707963267949,1.5707963267949,3.14159265358979,                     45P     37
3.14159265358979,3.14159265358979,1.,0.707106781186548,1.,            45P     38
0.707106781186548,1.,0.707106781186548,1.,0.707106781186548,1.,       45P     39
-5.7225,-7.00804130812073D-16,0.5,-5.7225,-5.7225,0.5,                45P     40
3.50402065406036D-16,-5.7225,0.5,5.7225,-5.7225,0.5,5.7225,0.,        45P     41
0.5,5.7225,5.7225,0.5,3.50402065406036D-16,5.7225,0.5,-5.7225,        45P     42
5.7225,0.5,-5.7225,7.00804130812073D-16,0.5,-3.14159265358979,        45P     43
3.14159265358979,0.,0.,0.;                                            45P     44
126,8,2,0,1,0,0,-3.14159265358979,-3.14159265358979,                  47P     45
-3.14159265358979,-1.5707963267949,-1.5707963267949,0.,0.,            47P     46
1.5707963267949,1.5707963267949,3.14159265358979,                     47P     47
3.14159265358979,3.14159265358979,1.,0.707106781186547,1.,            47P     48
0.707106781186547,1.,0.707106781186547,1.,0.707106781186547,1.,       47P     49
8.5,1.04094977927525D-15,0.,8.5,8.5,0.,-5.20474889637625D-16,         47P     50
8.5,0.,-8.5,8.5,0.,-8.5,0.,0.,-8.5,-8.5,0.,                           47P     51
-5.20474889637625D-16,-8.5,0.,8.5,-8.5,0.,8.5,                        47P     52
-1.04094977927525D-15,0.,-3.14159265358979,3.14159265358979,0.,       47P     53
0.,0.;                                                                47P     54
126,4,2,0,0,0,0,-3.14159265358979,-3.14159265358979,                  49P     55
-3.14159265358979,-1.5707963267949,-1.5707963267949,0.,0.,0.,1.,      49P     56
0.707106781186548,1.,0.707106781186548,1.,5.7225,                     49P     57
-7.00804130812073D-16,17.5,5.7225,-5.7225,17.5,                       49P     58
-3.50402065406036D-16,-5.7225,17.5,-5.7225,-5.7225,17.5,-5.7225,      49P     59
0.,17.5,-3.14159265358979,0.,0.,0.,0.;                                49P     60
126,4,2,0,0,0,0,0.,0.,0.,1.5707963267949,1.5707963267949,             51P     61
3.14159265358979,3.14159265358979,3.14159265358979,1.,                51P     62
0.707106781186548,1.,0.707106781186548,1.,-5.7225,0.,17.5,            51P     63
-5.7225,5.7225,17.5,-3.50402065406036D-16,5.7225,17.5,5.7225,         51P     64
5.7225,17.5,5.7225,7.00804130812073D-16,17.5,0.,                      51P     65
3.14159265358979,0.,0.,0.;                                            51P     66
126,1,1,0,0,1,0,-5.36075396002443,-5.36075396002443,                  53P     67
-2.39002438379026,-2.39002438379026,1.,1.,-5.7225,0.,17.5,            53P     68
-5.7225,0.,0.5,-5.36075396002443,-2.39002438379026,0.,0.,0.;          53P     69
126,1,1,0,0,1,0,-0.0404061017820884,-0.0404061017820884,              55P     70
0.0404061017820884,0.0404061017820884,1.,1.,8.5,0.,                   55P     71
3.46944695195361D-17,9.,0.,0.5,-0.0404061017820884,                   55P     72
0.0404061017820884,0.,0.,0.;                                          55P     73
126,8,2,0,1,0,0,-3.14159265358979,-3.14159265358979,                  57P     74
-3.14159265358979,-1.5707963267949,-1.5707963267949,0.,0.,            57P     75
1.5707963267949,1.5707963267949,3.14159265358979,                     57P     76
3.14159265358979,3.14159265358979,1.,0.707106781186547,1.,            57P     77
0.707106781186547,1.,0.707106781186547,1.,0.707106781186547,1.,       57P     78
9.,-1.10218211923262D-15,0.5,9.,-9.,0.5,-5.51091059616309D-16,        57P     79
-9.,0.5,-9.,-9.,0.5,-9.,0.,0.5,-9.,9.,0.5,-5.51091059616309D-16,      57P     80
9.,0.5,9.,9.,0.5,9.,1.10218211923262D-15,0.5,-3.14159265358979,       57P     81
3.14159265358979,0.,0.,0.;                                            57P     82
126,8,2,0,1,0,0,-3.14159265358979,-3.14159265358979,                  59P     83
-3.14159265358979,-1.5707963267949,-1.5707963267949,0.,0.,            59P     84
1.5707963267949,1.5707963267949,3.14159265358979,                     59P     85
3.14159265358979,3.14159265358979,1.,0.707106781186547,1.,            59P     86
0.707106781186547,1.,0.707106781186547,1.,0.707106781186547,1.,       59P     87
9.,1.10218211923262D-15,17.5,9.,9.,17.5,-5.51091059616309D-16,        59P     88
9.,17.5,-9.,9.,17.5,-9.,0.,17.5,-9.,-9.,17.5,                         59P     89
-5.51091059616309D-16,-9.,17.5,9.,-9.,17.5,9.,                        59P     90
-1.10218211923262D-15,17.5,-3.14159265358979,3.14159265358979,        59P     91
0.,0.,0.;                                                             59P     92
126,1,1,0,0,1,0,-1.94444444444444,-1.94444444444444,                  61P     93
-0.0555555555555556,-0.0555555555555556,1.,1.,9.,0.,17.5,9.,0.,       61P     94
0.5,-1.94444444444444,-0.0555555555555556,0.,0.,0.;                   61P     95
126,8,2,0,1,0,0,-3.14159265358979,-3.14159265358979,                  63P     96
-3.14159265358979,-1.5707963267949,-1.5707963267949,0.,0.,            63P     97
1.5707963267949,1.5707963267949,3.14159265358979,                     63P     98
3.14159265358979,3.14159265358979,1.,0.707106781186548,1.,            63P     99
0.707106781186547,1.,0.707106781186547,1.,0.707106781186548,1.,       63P    100
6.2225,7.62036470769441D-16,18.,6.2225,6.2225,18.,                    63P    101
-3.8101823538472D-16,6.2225,18.,-6.2225,6.2225,18.,-6.2225,0.,        63P    102
18.,-6.2225,-6.2225,18.,-3.8101823538472D-16,-6.2225,18.,6.2225,      63P    103
-6.2225,18.,6.2225,-7.62036470769441D-16,18.,-3.14159265358979,       63P    104
3.14159265358979,0.,0.,0.;                                            63P    105
126,1,1,0,0,1,0,-0.0591968841512387,-0.0591968841512387,              65P    106
0.0591968841512387,0.0591968841512387,1.,1.,6.2225,0.,18.,            65P    107
5.7225,0.,17.5,-0.0591968841512387,0.0591968841512387,0.,0.,0.;       65P    108
126,8,2,0,1,0,0,-3.14159265358979,-3.14159265358979,                  67P    109
-3.14159265358979,-1.5707963267949,-1.5707963267949,0.,0.,            67P    110
1.5707963267949,1.5707963267949,3.14159265358979,                     67P    111
3.14159265358979,3.14159265358979,1.,0.707106781186547,1.,            67P    112
0.707106781186547,1.,0.707106781186547,1.,0.707106781186547,1.,       67P    113
8.5,-1.04094977927525D-15,18.,8.5,-8.5,18.,                           67P    114
-5.20474889637625D-16,-8.5,18.,-8.5,-8.5,18.,-8.5,0.,18.,-8.5,        67P    115
8.5,18.,-5.20474889637625D-16,8.5,18.,8.5,8.5,18.,8.5,                67P    116
1.04094977927525D-15,18.,-3.14159265358979,3.14159265358979,0.,       67P    117
0.,0.;                                                                67P    118
126,1,1,0,0,1,0,-0.0404061017820886,-0.0404061017820886,              69P    119
0.0404061017820884,0.0404061017820884,1.,1.,8.5,0.,18.,9.,0.,         69P    120
17.5,-0.0404061017820886,0.0404061017820884,0.,0.,0.;                 69P    121
128,1,8,1,2,0,1,0,0,0,-0.0591968841512389,-0.0591968841512389,        71P    122
0.0591968841512389,0.0591968841512389,-3.14159265358979,              71P    123
-3.14159265358979,-3.14159265358979,-1.5707963267949,                 71P    124
-1.5707963267949,0.,0.,1.5707963267949,1.5707963267949,               71P    125
3.14159265358979,3.14159265358979,3.14159265358979,1.,1.,             71P    126
0.707106781186548,0.707106781186548,1.,1.,0.707106781186548,          71P    127
0.707106781186548,1.,1.,0.707106781186548,0.707106781186548,1.,       71P    128
1.,0.707106781186548,0.707106781186548,1.,1.,-5.7225,0.,0.5,          71P    129
-6.2225,0.,-1.38777878078145D-16,-5.7225,5.7225,0.5,-6.2225,          71P    130
6.2225,-1.38777878078145D-16,0.,5.7225,0.5,0.,6.2225,                 71P    131
-1.38777878078145D-16,5.7225,5.7225,0.5,6.2225,6.2225,                71P    132
-1.38777878078145D-16,5.7225,0.,0.5,6.2225,0.,                        71P    133
-1.38777878078145D-16,5.7225,-5.7225,0.5,6.2225,-6.2225,              71P    134
-1.38777878078145D-16,0.,-5.7225,0.5,0.,-6.2225,                      71P    135
-1.38777878078145D-16,-5.7225,-5.7225,0.5,-6.2225,-6.2225,            71P    136
-1.38777878078145D-16,-5.7225,0.,0.5,-6.2225,0.,                      71P    137
-1.38777878078145D-16,-0.0591968841512389,0.0591968841512389,         71P    138
-3.14159265358979,3.14159265358979;                                   71P    139
128,1,1,1,1,0,0,1,0,0,-0.85,-0.85,0.85,0.85,-0.85,-0.85,0.85,         73P    140
0.85,1.,1.,1.,1.,8.5,-8.5,0.,-8.5,-8.5,0.,8.5,8.5,0.,-8.5,8.5,        73P    141
0.,-0.85,0.85,-0.85,0.85;                                             73P    142
128,1,8,1,2,0,1,0,0,0,-5.36075396002443,-5.36075396002443,            75P    143
-2.39002438379026,-2.39002438379026,-3.14159265358979,                75P    144
-3.14159265358979,-3.14159265358979,-1.5707963267949,                 75P    145
-1.5707963267949,0.,0.,1.5707963267949,1.5707963267949,               75P    146
3.14159265358979,3.14159265358979,3.14159265358979,1.,1.,             75P    147
0.707106781186548,0.707106781186548,1.,1.,0.707106781186548,          75P    148
0.707106781186548,1.,1.,0.707106781186548,0.707106781186548,1.,       75P    149
1.,0.707106781186548,0.707106781186548,1.,1.,-5.7225,0.,0.5,          75P    150
-5.7225,0.,17.5,-5.7225,-5.7225,0.5,-5.7225,-5.7225,17.5,0.,          75P    151
-5.7225,0.5,0.,-5.7225,17.5,5.7225,-5.7225,0.5,5.7225,-5.7225,        75P    152
17.5,5.7225,0.,0.5,5.7225,0.,17.5,5.7225,5.7225,0.5,5.7225,           75P    153
5.7225,17.5,0.,5.7225,0.5,0.,5.7225,17.5,-5.7225,5.7225,0.5,          75P    154
-5.7225,5.7225,17.5,-5.7225,0.,0.5,-5.7225,0.,17.5,                   75P    155
-5.36075396002443,-2.39002438379026,-3.14159265358979,                75P    156
3.14159265358979;                                                     75P    157
128,1,8,1,2,0,1,0,0,0,-0.0404061017820884,-0.0404061017820884,        77P    158
0.0404061017820884,0.0404061017820884,-3.14159265358979,              77P    159
-3.14159265358979,-3.14159265358979,-1.5707963267949,                 77P    160
-1.5707963267949,0.,0.,1.5707963267949,1.5707963267949,               77P    161
3.14159265358979,3.14159265358979,3.14159265358979,1.,1.,             77P    162
0.707106781186548,0.707106781186548,1.,1.,0.707106781186548,          77P    163
0.707106781186548,1.,1.,0.707106781186548,0.707106781186548,1.,       77P    164
1.,0.707106781186548,0.707106781186548,1.,1.,8.5,0.,                  77P    165
3.46944695195361D-17,9.,0.,0.5,8.5,-8.5,3.46944695195361D-17,9.,      77P    166
-9.,0.5,0.,-8.5,3.46944695195361D-17,0.,-9.,0.5,-8.5,-8.5,            77P    167
3.46944695195361D-17,-9.,-9.,0.5,-8.5,0.,3.46944695195361D-17,        77P    168
-9.,0.,0.5,-8.5,8.5,3.46944695195361D-17,-9.,9.,0.5,0.,8.5,           77P    169
3.46944695195361D-17,0.,9.,0.5,8.5,8.5,3.46944695195361D-17,9.,       77P    170
9.,0.5,8.5,0.,3.46944695195361D-17,9.,0.,0.5,                         77P    171
-0.0404061017820884,0.0404061017820884,-3.14159265358979,             77P    172
3.14159265358979;                                                     77P    173
128,1,8,1,2,0,1,0,0,0,0.0555555555555556,0.0555555555555556,          79P    174
1.94444444444444,1.94444444444444,-3.14159265358979,                  79P    175
-3.14159265358979,-3.14159265358979,-1.5707963267949,                 79P    176
-1.5707963267949,0.,0.,1.5707963267949,1.5707963267949,               79P    177
3.14159265358979,3.14159265358979,3.14159265358979,1.,1.,             79P    178
0.707106781186548,0.707106781186548,1.,1.,0.707106781186548,          79P    179
0.707106781186548,1.,1.,0.707106781186548,0.707106781186548,1.,       79P    180
1.,0.707106781186548,0.707106781186548,1.,1.,9.,0.,17.5,9.,0.,        79P    181
0.5,9.,9.,17.5,9.,9.,0.5,0.,9.,17.5,0.,9.,0.5,-9.,9.,17.5,-9.,        79P    182
9.,0.5,-9.,0.,17.5,-9.,0.,0.5,-9.,-9.,17.5,-9.,-9.,0.5,0.,-9.,        79P    183
17.5,0.,-9.,0.5,9.,-9.,17.5,9.,-9.,0.5,9.,0.,17.5,9.,0.,0.5,          79P    184
0.0555555555555556,1.94444444444444,-3.14159265358979,                79P    185
3.14159265358979;                                                     79P    186
128,1,8,1,2,0,1,0,0,0,-0.0591968841512387,-0.0591968841512387,        81P    187
0.0591968841512387,0.0591968841512387,-3.14159265358979,              81P    188
-3.14159265358979,-3.14159265358979,-1.5707963267949,                 81P    189
-1.5707963267949,0.,0.,1.5707963267949,1.5707963267949,               81P    190
3.14159265358979,3.14159265358979,3.14159265358979,1.,1.,             81P    191
0.707106781186548,0.707106781186548,1.,1.,0.707106781186548,          81P    192
0.707106781186548,1.,1.,0.707106781186548,0.707106781186548,1.,       81P    193
1.,0.707106781186548,0.707106781186548,1.,1.,5.7225,0.,17.5,          81P    194
6.2225,0.,18.,5.7225,5.7225,17.5,6.2225,6.2225,18.,0.,5.7225,         81P    195
17.5,0.,6.2225,18.,-5.7225,5.7225,17.5,-6.2225,6.2225,18.,            81P    196
-5.7225,0.,17.5,-6.2225,0.,18.,-5.7225,-5.7225,17.5,-6.2225,          81P    197
-6.2225,18.,0.,-5.7225,17.5,0.,-6.2225,18.,5.7225,-5.7225,17.5,       81P    198
6.2225,-6.2225,18.,5.7225,0.,17.5,6.2225,0.,18.,                      81P    199
-0.0591968841512387,0.0591968841512387,-3.14159265358979,             81P    200
3.14159265358979;                                                     81P    201
128,1,1,1,1,0,0,1,0,0,-0.85,-0.85,0.85,0.85,-0.85,-0.85,0.85,         83P    202
0.85,1.,1.,1.,1.,-8.5,-8.5,18.,8.5,-8.5,18.,-8.5,8.5,18.,8.5,         83P    203
8.5,18.,-0.85,0.85,-0.85,0.85;                                        83P    204
128,1,8,1,2,0,1,0,0,0,-0.0404061017820884,-0.0404061017820884,        85P    205
0.0404061017820886,0.0404061017820886,-3.14159265358979,              85P    206
-3.14159265358979,-3.14159265358979,-1.5707963267949,                 85P    207
-1.5707963267949,0.,0.,1.5707963267949,1.5707963267949,               85P    208
3.14159265358979,3.14159265358979,3.14159265358979,1.,1.,             85P    209
0.707106781186548,0.707106781186548,1.,1.,0.707106781186548,          85P    210
0.707106781186548,1.,1.,0.707106781186548,0.707106781186548,1.,       85P    211
1.,0.707106781186548,0.707106781186548,1.,1.,8.5,0.,18.,9.,0.,        85P    212
17.5,8.5,8.5,18.,9.,9.,17.5,0.,8.5,18.,0.,9.,17.5,-8.5,8.5,18.,       85P    213
-9.,9.,17.5,-8.5,0.,18.,-9.,0.,17.5,-8.5,-8.5,18.,-9.,-9.,17.5,       85P    214
0.,-8.5,18.,0.,-9.,17.5,8.5,-8.5,18.,9.,-9.,17.5,8.5,0.,18.,9.,       85P    215
0.,17.5,-0.0404061017820884,0.0404061017820886,                       85P    216
-3.14159265358979,3.14159265358979;                                   85P    217
502,9,-6.2225,7.62036470769441D-16,0.,-5.7225,                        87P    218
-7.00804130812073D-16,0.5,8.5,1.04094977927525D-15,0.,5.7225,         87P    219
-7.00804130812073D-16,17.5,-5.7225,0.,17.5,9.,                        87P    220
-1.10218211923262D-15,0.5,9.,1.10218211923262D-15,17.5,6.2225,        87P    221
7.62036470769441D-16,18.,8.5,-1.04094977927525D-15,18.;               87P    222
504,15,41,87,1,87,1,43,87,1,87,2,45,87,2,87,2,47,87,3,87,3,49,        89P    223
87,4,87,5,51,87,5,87,4,53,87,5,87,2,55,87,3,87,6,57,87,6,87,6,        89P    224
59,87,7,87,7,61,87,7,87,6,63,87,8,87,8,65,87,8,87,4,67,87,9,87,       89P    225
9,69,87,9,87,7;                                                       89P    226
406,1,8HTěleso1;                                                     91P    227
314,74.5098039215686,73.7254901960784,72.9411764705882,;              93P    228
S      1G      4D     94P    228                                        T      1
