                                                                        S      1
,,31HNátrubek s vnitřním závitem,11H20520030000,22HAutodesk InventorG      1
 2015,7Hunknown,32,38,7,99,15,,1.,2,2HMM,1,0.08,15H20160301.124330,0.01,G      2
10000.,14HStruska Martin,40HBupospol, Armaturka Koukol, spol. s.r.o.,11,G      3
0,15H20140923.063551;                                                   G      4
     186       1                                                00000000D      1
     186             -93       1       0                               0D      2
     514       2                                                00010000D      3
     514                       1       1                               0D      4
     510       3                                                00010000D      5
     510             -93       1       1                               0D      6
     510       4                                                00010000D      7
     510             -93       1       1                               0D      8
     510       5                                                00010000D      9
     510             -93       1       1                               0D     10
     510       6                                                00010000D     11
     510             -93       1       1                               0D     12
     510       7                                                00010000D     13
     510             -93       1       1                               0D     14
     510       8                                                00010000D     15
     510             -93       1       1                               0D     16
     510       9                                                00010000D     17
     510             -93       1       1                               0D     18
     510      10                                                00010000D     19
     510             -93       1       1                               0D     20
     508      11                                                00010000D     21
     508                       1       1                               0D     22
     508      12                                                00010000D     23
     508                       1       1                               0D     24
     508      13                                                00010000D     25
     508                       1       1                               0D     26
     508      14                                                00010000D     27
     508                       1       1                               0D     28
     508      15                                                00010000D     29
     508                       1       1                               0D     30
     508      16                                                00010000D     31
     508                       1       1                               0D     32
     508      17                                                00010000D     33
     508                       1       1                               0D     34
     508      18                                                00010000D     35
     508                       1       1                               0D     36
     508      19                                                00010000D     37
     508                       1       1                               0D     38
     508      20                                                00010000D     39
     508                       1       1                               0D     40
     126      21                                                00010000D     41
     126       0              10       0                               0D     42
     126      31                                                00010000D     43
     126       0               4       0                               0D     44
     126      35                                                00010000D     45
     126       0              10       0                               0D     46
     126      45                                                00010000D     47
     126       0              10       0                               0D     48
     126      55                                                00010000D     49
     126       0               6       0                               0D     50
     126      61                                                00010000D     51
     126       0               5       0                               0D     52
     126      66                                                00010000D     53
     126       0               3       0                               0D     54
     126      69                                                00010000D     55
     126       0               4       0                               0D     56
     126      73                                                00010000D     57
     126       0              10       0                               0D     58
     126      83                                                00010000D     59
     126       0              10       0                               0D     60
     126      93                                                00010000D     61
     126       0               2       0                               0D     62
     126      95                                                00010000D     63
     126       0              10       0                               0D     64
     126     105                                                00010000D     65
     126       0               3       0                               0D     66
     126     108                                                00010000D     67
     126       0              10       0                               0D     68
     126     118                                                00010000D     69
     126       0               3       0                               0D     70
     128     121                                                00010000D     71
     128       0     -93      17       0                               0D     72
     128     138                                                00010000D     73
     128       0     -93       3       0                               0D     74
     128     141                                                00010000D     75
     128       0     -93      14       0                               0D     76
     128     155                                                00010000D     77
     128       0     -93      16       0                               0D     78
     128     171                                                00010000D     79
     128       0     -93      12       0                               0D     80
     128     183                                                00010000D     81
     128       0     -93      14       0                               0D     82
     128     197                                                00010000D     83
     128       0     -93       3       0                               0D     84
     128     200                                                00010000D     85
     128       0     -93      13       0                               0D     86
     502     213                                                00010000D     87
     502                       5       1                               0D     88
     504     218                                                00010001D     89
     504                       4       1                               0D     90
     406     222                                                00000000D     91
     406                       1      15                               0D     92
     314     223                                                00000200D     93
     314                       1       0                               0D     94
186,3,1,0,0,1,91;                                                      1P      1
514,8,5,1,7,1,9,1,11,1,13,1,15,1,17,1,19,1;                            3P      2
510,71,1,1,21;                                                         5P      3
510,73,2,1,23,25;                                                      7P      4
510,75,1,1,27;                                                         9P      5
510,77,1,1,29;                                                        11P      6
510,79,1,1,31;                                                        13P      7
510,81,1,1,33;                                                        15P      8
510,83,2,1,35,37;                                                     17P      9
510,85,1,1,39;                                                        19P     10
508,4,0,89,1,1,0,0,89,2,1,0,0,89,3,1,0,0,89,2,0,0;                    21P     11
508,1,0,89,4,0,0;                                                     23P     12
508,1,0,89,1,0,0;                                                     25P     13
508,5,0,89,5,0,0,0,89,6,0,0,0,89,7,1,0,0,89,3,0,0,0,89,7,0,0;         27P     14
508,4,0,89,4,1,0,0,89,8,1,0,0,89,9,1,0,0,89,8,0,0;                    29P     15
508,4,0,89,10,0,0,0,89,11,1,0,0,89,9,0,0,0,89,11,0,0;                 31P     16
508,5,0,89,12,1,0,0,89,13,1,0,0,89,5,1,0,0,89,6,1,0,0,89,13,0,0;      33P     17
508,1,0,89,14,0,0;                                                    35P     18
508,1,0,89,12,0,0;                                                    37P     19
508,4,0,89,14,1,0,0,89,15,1,0,0,89,10,1,0,0,89,15,0,0;                39P     20
126,8,2,0,1,0,0,-3.14159265358979,-3.14159265358979,                  41P     21
-3.14159265358979,-1.5707963267949,-1.5707963267949,0.,0.,            41P     22
1.5707963267949,1.5707963267949,3.14159265358979,                     41P     23
3.14159265358979,3.14159265358979,1.,0.707106781186547,1.,            41P     24
0.707106781186547,1.,0.707106781186547,1.,0.707106781186547,1.,       41P     25
-7.975,9.76655822320014D-16,0.,-7.975,7.975,0.,                       41P     26
4.88327911160007D-16,7.975,0.,7.975,7.975,0.,7.975,0.,0.,7.975,       41P     27
-7.975,0.,4.88327911160007D-16,-7.975,0.,-7.975,-7.975,0.,            41P     28
-7.975,-9.76655822320014D-16,0.,-3.14159265358979,                    41P     29
3.14159265358979,0.,0.,0.;                                            41P     30
126,1,1,0,0,1,0,-0.0457674292030128,-0.0457674292030128,              43P     31
0.0457674292030128,0.0457674292030128,1.,1.,-7.975,0.,                43P     32
3.46944695195361D-17,-7.475,0.,0.5,-0.0457674292030128,               43P     33
0.0457674292030128,0.,0.,0.;                                          43P     34
126,8,2,0,1,0,0,-3.14159265358979,-3.14159265358979,                  45P     35
-3.14159265358979,-1.5707963267949,-1.5707963267949,0.,0.,            45P     36
1.5707963267949,1.5707963267949,3.14159265358979,                     45P     37
3.14159265358979,3.14159265358979,1.,0.707106781186548,1.,            45P     38
0.707106781186548,1.,0.707106781186548,1.,0.707106781186548,1.,       45P     39
-7.475,-9.15423482362646D-16,0.5,-7.475,-7.475,0.5,                   45P     40
4.57711741181323D-16,-7.475,0.5,7.475,-7.475,0.5,7.475,0.,0.5,        45P     41
7.475,7.475,0.5,4.57711741181323D-16,7.475,0.5,-7.475,7.475,0.5,      45P     42
-7.475,9.15423482362646D-16,0.5,-3.14159265358979,                    45P     43
3.14159265358979,0.,0.,0.;                                            45P     44
126,8,2,0,1,0,0,-3.14159265358979,-3.14159265358979,                  47P     45
-3.14159265358979,-1.5707963267949,-1.5707963267949,0.,0.,            47P     46
1.5707963267949,1.5707963267949,3.14159265358979,                     47P     47
3.14159265358979,3.14159265358979,1.,0.707106781186548,1.,            47P     48
0.707106781186548,1.,0.707106781186548,1.,0.707106781186548,1.,       47P     49
9.5,1.16341445918999D-15,0.,9.5,9.5,0.,-5.81707229594993D-16,         47P     50
9.5,0.,-9.5,9.5,0.,-9.5,0.,0.,-9.5,-9.5,0.,                           47P     51
-5.81707229594993D-16,-9.5,0.,9.5,-9.5,0.,9.5,                        47P     52
-1.16341445918999D-15,0.,-3.14159265358979,3.14159265358979,0.,       47P     53
0.,0.;                                                                47P     54
126,4,2,0,0,0,0,-3.14159265358979,-3.14159265358979,                  49P     55
-3.14159265358979,-1.5707963267949,-1.5707963267949,0.,0.,0.,1.,      49P     56
0.707106781186548,1.,0.707106781186548,1.,7.475,                      49P     57
-9.15423482362646D-16,19.5,7.475,-7.475,19.5,                         49P     58
-4.57711741181323D-16,-7.475,19.5,-7.475,-7.475,19.5,-7.475,0.,       49P     59
19.5,-3.14159265358979,0.,0.,0.,0.;                                   49P     60
126,4,2,0,0,0,0,0.,0.,0.,1.5707963267949,1.5707963267949,             51P     61
3.14159265358979,3.14159265358979,3.14159265358979,1.,                51P     62
0.707106781186548,1.,0.707106781186548,1.,-7.475,0.,19.5,-7.475,      51P     63
7.475,19.5,-4.57711741181323D-16,7.475,19.5,7.475,7.475,19.5,         51P     64
7.475,9.15423482362646D-16,19.5,0.,3.14159265358979,0.,0.,0.;         51P     65
126,1,1,0,0,1,0,-4.56736002025118,-4.56736002025118,                  53P     66
-2.02555400018429,-2.02555400018429,1.,1.,-7.475,0.,19.5,-7.475,      53P     67
0.,0.5,-4.56736002025118,-2.02555400018429,0.,0.,0.;                  53P     68
126,1,1,0,0,1,0,-0.0362618862146948,-0.0362618862146948,              55P     69
0.0362618862146948,0.0362618862146948,1.,1.,9.5,0.,                   55P     70
-1.38777878078145D-16,10.,0.,0.5,-0.0362618862146948,                 55P     71
0.0362618862146948,0.,0.,0.;                                          55P     72
126,8,2,0,1,0,0,-3.14159265358979,-3.14159265358979,                  57P     73
-3.14159265358979,-1.5707963267949,-1.5707963267949,0.,0.,            57P     74
1.5707963267949,1.5707963267949,3.14159265358979,                     57P     75
3.14159265358979,3.14159265358979,1.,0.707106781186548,1.,            57P     76
0.707106781186547,1.,0.707106781186547,1.,0.707106781186548,1.,       57P     77
10.,-1.22464679914735D-15,0.5,10.,-10.,0.5,                           57P     78
-6.12323399573677D-16,-10.,0.5,-10.,-10.,0.5,-10.,0.,0.5,-10.,        57P     79
10.,0.5,-6.12323399573677D-16,10.,0.5,10.,10.,0.5,10.,                57P     80
1.22464679914735D-15,0.5,-3.14159265358979,3.14159265358979,0.,       57P     81
0.,0.;                                                                57P     82
126,8,2,0,1,0,0,-3.14159265358979,-3.14159265358979,                  59P     83
-3.14159265358979,-1.5707963267949,-1.5707963267949,0.,0.,            59P     84
1.5707963267949,1.5707963267949,3.14159265358979,                     59P     85
3.14159265358979,3.14159265358979,1.,0.707106781186548,1.,            59P     86
0.707106781186547,1.,0.707106781186547,1.,0.707106781186548,1.,       59P     87
10.,1.22464679914735D-15,19.5,10.,10.,19.5,                           59P     88
-6.12323399573677D-16,10.,19.5,-10.,10.,19.5,-10.,0.,19.5,-10.,       59P     89
-10.,19.5,-6.12323399573677D-16,-10.,19.5,10.,-10.,19.5,10.,          59P     90
-1.22464679914735D-15,19.5,-3.14159265358979,3.14159265358979,        59P     91
0.,0.,0.;                                                             59P     92
126,1,1,0,0,1,0,-1.95,-1.95,-0.05,-0.05,1.,1.,10.,0.,19.5,10.,        61P     93
0.,0.5,-1.95,-0.05,0.,0.,0.;                                          61P     94
126,8,2,0,1,0,0,-3.14159265358979,-3.14159265358979,                  63P     95
-3.14159265358979,-1.5707963267949,-1.5707963267949,0.,0.,            63P     96
1.5707963267949,1.5707963267949,3.14159265358979,                     63P     97
3.14159265358979,3.14159265358979,1.,0.707106781186547,1.,            63P     98
0.707106781186547,1.,0.707106781186547,1.,0.707106781186547,1.,       63P     99
7.975,9.76655822320014D-16,20.,7.975,7.975,20.,                       63P    100
-4.88327911160007D-16,7.975,20.,-7.975,7.975,20.,-7.975,0.,20.,       63P    101
-7.975,-7.975,20.,-4.88327911160007D-16,-7.975,20.,7.975,-7.975,      63P    102
20.,7.975,-9.76655822320014D-16,20.,-3.14159265358979,                63P    103
3.14159265358979,0.,0.,0.;                                            63P    104
126,1,1,0,0,1,0,-0.0457674292030128,-0.0457674292030128,              65P    105
0.0457674292030128,0.0457674292030128,1.,1.,7.975,0.,20.,7.475,       65P    106
0.,19.5,-0.0457674292030128,0.0457674292030128,0.,0.,0.;              65P    107
126,8,2,0,1,0,0,-3.14159265358979,-3.14159265358979,                  67P    108
-3.14159265358979,-1.5707963267949,-1.5707963267949,0.,0.,            67P    109
1.5707963267949,1.5707963267949,3.14159265358979,                     67P    110
3.14159265358979,3.14159265358979,1.,0.707106781186548,1.,            67P    111
0.707106781186548,1.,0.707106781186548,1.,0.707106781186548,1.,       67P    112
9.5,-1.16341445918999D-15,20.,9.5,-9.5,20.,                           67P    113
-5.81707229594993D-16,-9.5,20.,-9.5,-9.5,20.,-9.5,0.,20.,-9.5,        67P    114
9.5,20.,-5.81707229594993D-16,9.5,20.,9.5,9.5,20.,9.5,                67P    115
1.16341445918999D-15,20.,-3.14159265358979,3.14159265358979,0.,       67P    116
0.,0.;                                                                67P    117
126,1,1,0,0,1,0,-0.0362618862146947,-0.0362618862146947,              69P    118
0.0362618862146949,0.0362618862146949,1.,1.,9.5,0.,20.,10.,0.,        69P    119
19.5,-0.0362618862146947,0.0362618862146949,0.,0.,0.;                 69P    120
128,1,8,1,2,0,1,0,0,0,-0.0457674292030128,-0.0457674292030128,        71P    121
0.0457674292030128,0.0457674292030128,-3.14159265358979,              71P    122
-3.14159265358979,-3.14159265358979,-1.5707963267949,                 71P    123
-1.5707963267949,0.,0.,1.5707963267949,1.5707963267949,               71P    124
3.14159265358979,3.14159265358979,3.14159265358979,1.,1.,             71P    125
0.707106781186548,0.707106781186548,1.,1.,0.707106781186548,          71P    126
0.707106781186548,1.,1.,0.707106781186548,0.707106781186548,1.,       71P    127
1.,0.707106781186548,0.707106781186548,1.,1.,-7.475,0.,0.5,           71P    128
-7.975,0.,3.46944695195361D-17,-7.475,7.475,0.5,-7.975,7.975,         71P    129
3.46944695195361D-17,0.,7.475,0.5,0.,7.975,3.46944695195361D-17,      71P    130
7.475,7.475,0.5,7.975,7.975,3.46944695195361D-17,7.475,0.,0.5,        71P    131
7.975,0.,3.46944695195361D-17,7.475,-7.475,0.5,7.975,-7.975,          71P    132
3.46944695195361D-17,0.,-7.475,0.5,0.,-7.975,                         71P    133
3.46944695195361D-17,-7.475,-7.475,0.5,-7.975,-7.975,                 71P    134
3.46944695195361D-17,-7.475,0.,0.5,-7.975,0.,                         71P    135
3.46944695195361D-17,-0.0457674292030128,0.0457674292030128,          71P    136
-3.14159265358979,3.14159265358979;                                   71P    137
128,1,1,1,1,0,0,1,0,0,-0.95,-0.95,0.95,0.95,-0.95,-0.95,0.95,         73P    138
0.95,1.,1.,1.,1.,9.5,-9.5,0.,-9.5,-9.5,0.,9.5,9.5,0.,-9.5,9.5,        73P    139
0.,-0.95,0.95,-0.95,0.95;                                             73P    140
128,1,8,1,2,0,1,0,0,0,-4.56736002025118,-4.56736002025118,            75P    141
-2.02555400018429,-2.02555400018429,-3.14159265358979,                75P    142
-3.14159265358979,-3.14159265358979,-1.5707963267949,                 75P    143
-1.5707963267949,0.,0.,1.5707963267949,1.5707963267949,               75P    144
3.14159265358979,3.14159265358979,3.14159265358979,1.,1.,             75P    145
0.707106781186548,0.707106781186548,1.,1.,0.707106781186548,          75P    146
0.707106781186548,1.,1.,0.707106781186548,0.707106781186548,1.,       75P    147
1.,0.707106781186548,0.707106781186548,1.,1.,-7.475,0.,0.5,           75P    148
-7.475,0.,19.5,-7.475,-7.475,0.5,-7.475,-7.475,19.5,0.,-7.475,        75P    149
0.5,0.,-7.475,19.5,7.475,-7.475,0.5,7.475,-7.475,19.5,7.475,0.,       75P    150
0.5,7.475,0.,19.5,7.475,7.475,0.5,7.475,7.475,19.5,0.,7.475,0.5,      75P    151
0.,7.475,19.5,-7.475,7.475,0.5,-7.475,7.475,19.5,-7.475,0.,0.5,       75P    152
-7.475,0.,19.5,-4.56736002025118,-2.02555400018429,                   75P    153
-3.14159265358979,3.14159265358979;                                   75P    154
128,1,8,1,2,0,1,0,0,0,-0.0362618862146948,-0.0362618862146948,        77P    155
0.0362618862146948,0.0362618862146948,-3.14159265358979,              77P    156
-3.14159265358979,-3.14159265358979,-1.5707963267949,                 77P    157
-1.5707963267949,0.,0.,1.5707963267949,1.5707963267949,               77P    158
3.14159265358979,3.14159265358979,3.14159265358979,1.,1.,             77P    159
0.707106781186548,0.707106781186548,1.,1.,0.707106781186548,          77P    160
0.707106781186548,1.,1.,0.707106781186548,0.707106781186548,1.,       77P    161
1.,0.707106781186548,0.707106781186548,1.,1.,9.5,0.,                  77P    162
-1.38777878078145D-16,10.,0.,0.5,9.5,-9.5,-1.38777878078145D-16,      77P    163
10.,-10.,0.5,0.,-9.5,-1.38777878078145D-16,0.,-10.,0.5,-9.5,          77P    164
-9.5,-1.38777878078145D-16,-10.,-10.,0.5,-9.5,0.,                     77P    165
-1.38777878078145D-16,-10.,0.,0.5,-9.5,9.5,                           77P    166
-1.38777878078145D-16,-10.,10.,0.5,0.,9.5,-1.38777878078145D-16,      77P    167
0.,10.,0.5,9.5,9.5,-1.38777878078145D-16,10.,10.,0.5,9.5,0.,          77P    168
-1.38777878078145D-16,10.,0.,0.5,-0.0362618862146948,                 77P    169
0.0362618862146948,-3.14159265358979,3.14159265358979;                77P    170
128,1,8,1,2,0,1,0,0,0,0.05,0.05,1.95,1.95,-3.14159265358979,          79P    171
-3.14159265358979,-3.14159265358979,-1.5707963267949,                 79P    172
-1.5707963267949,0.,0.,1.5707963267949,1.5707963267949,               79P    173
3.14159265358979,3.14159265358979,3.14159265358979,1.,1.,             79P    174
0.707106781186548,0.707106781186548,1.,1.,0.707106781186548,          79P    175
0.707106781186548,1.,1.,0.707106781186548,0.707106781186548,1.,       79P    176
1.,0.707106781186548,0.707106781186548,1.,1.,10.,0.,19.5,10.,0.,      79P    177
0.5,10.,10.,19.5,10.,10.,0.5,0.,10.,19.5,0.,10.,0.5,-10.,10.,         79P    178
19.5,-10.,10.,0.5,-10.,0.,19.5,-10.,0.,0.5,-10.,-10.,19.5,-10.,       79P    179
-10.,0.5,0.,-10.,19.5,0.,-10.,0.5,10.,-10.,19.5,10.,-10.,0.5,         79P    180
10.,0.,19.5,10.,0.,0.5,0.05,1.95,-3.14159265358979,                   79P    181
3.14159265358979;                                                     79P    182
128,1,8,1,2,0,1,0,0,0,-0.0457674292030128,-0.0457674292030128,        81P    183
0.0457674292030128,0.0457674292030128,-3.14159265358979,              81P    184
-3.14159265358979,-3.14159265358979,-1.5707963267949,                 81P    185
-1.5707963267949,0.,0.,1.5707963267949,1.5707963267949,               81P    186
3.14159265358979,3.14159265358979,3.14159265358979,1.,1.,             81P    187
0.707106781186548,0.707106781186548,1.,1.,0.707106781186548,          81P    188
0.707106781186548,1.,1.,0.707106781186548,0.707106781186548,1.,       81P    189
1.,0.707106781186548,0.707106781186548,1.,1.,7.475,0.,19.5,           81P    190
7.975,0.,20.,7.475,7.475,19.5,7.975,7.975,20.,0.,7.475,19.5,0.,       81P    191
7.975,20.,-7.475,7.475,19.5,-7.975,7.975,20.,-7.475,0.,19.5,          81P    192
-7.975,0.,20.,-7.475,-7.475,19.5,-7.975,-7.975,20.,0.,-7.475,         81P    193
19.5,0.,-7.975,20.,7.475,-7.475,19.5,7.975,-7.975,20.,7.475,0.,       81P    194
19.5,7.975,0.,20.,-0.0457674292030128,0.0457674292030128,             81P    195
-3.14159265358979,3.14159265358979;                                   81P    196
128,1,1,1,1,0,0,1,0,0,-0.95,-0.95,0.95,0.95,-0.95,-0.95,0.95,         83P    197
0.95,1.,1.,1.,1.,-9.5,-9.5,20.,9.5,-9.5,20.,-9.5,9.5,20.,9.5,         83P    198
9.5,20.,-0.95,0.95,-0.95,0.95;                                        83P    199
128,1,8,1,2,0,1,0,0,0,-0.0362618862146949,-0.0362618862146949,        85P    200
0.0362618862146947,0.0362618862146947,-3.14159265358979,              85P    201
-3.14159265358979,-3.14159265358979,-1.5707963267949,                 85P    202
-1.5707963267949,0.,0.,1.5707963267949,1.5707963267949,               85P    203
3.14159265358979,3.14159265358979,3.14159265358979,1.,1.,             85P    204
0.707106781186548,0.707106781186548,1.,1.,0.707106781186548,          85P    205
0.707106781186548,1.,1.,0.707106781186548,0.707106781186548,1.,       85P    206
1.,0.707106781186548,0.707106781186548,1.,1.,9.5,0.,20.,10.,0.,       85P    207
19.5,9.5,9.5,20.,10.,10.,19.5,0.,9.5,20.,0.,10.,19.5,-9.5,9.5,        85P    208
20.,-10.,10.,19.5,-9.5,0.,20.,-10.,0.,19.5,-9.5,-9.5,20.,-10.,        85P    209
-10.,19.5,0.,-9.5,20.,0.,-10.,19.5,9.5,-9.5,20.,10.,-10.,19.5,        85P    210
9.5,0.,20.,10.,0.,19.5,-0.0362618862146949,0.0362618862146947,        85P    211
-3.14159265358979,3.14159265358979;                                   85P    212
502,9,-7.975,9.76655822320014D-16,0.,-7.475,                          87P    213
-9.15423482362646D-16,0.5,9.5,1.16341445918999D-15,0.,7.475,          87P    214
-9.15423482362646D-16,19.5,-7.475,0.,19.5,10.,                        87P    215
-1.22464679914735D-15,0.5,10.,1.22464679914735D-15,19.5,7.975,        87P    216
9.76655822320014D-16,20.,9.5,-1.16341445918999D-15,20.;               87P    217
504,15,41,87,1,87,1,43,87,1,87,2,45,87,2,87,2,47,87,3,87,3,49,        89P    218
87,4,87,5,51,87,5,87,4,53,87,5,87,2,55,87,3,87,6,57,87,6,87,6,        89P    219
59,87,7,87,7,61,87,7,87,6,63,87,8,87,8,65,87,8,87,4,67,87,9,87,       89P    220
9,69,87,9,87,7;                                                       89P    221
406,1,8HTěleso1;                                                     91P    222
314,74.5098039215686,73.7254901960784,72.9411764705882,;              93P    223
S      1G      4D     94P    223                                        T      1
