                                                                        S      1
,,31HNátrubek s vnitřním závitem,11H20520090000,22HAutodesk InventorG      1
 2015,7Hunknown,32,38,7,99,15,,1.,2,2HMM,1,0.08,15H20160301.124409,0.01,G      2
10000.,14HStruska Martin,40HBupospol, Armaturka Koukol, spol. s.r.o.,11,G      3
0,15H20140923.063551;                                                   G      4
     186       1                                                00000000D      1
     186             -93       1       0                               0D      2
     514       2                                                00010000D      3
     514                       1       1                               0D      4
     510       3                                                00010000D      5
     510             -93       1       1                               0D      6
     510       4                                                00010000D      7
     510             -93       1       1                               0D      8
     510       5                                                00010000D      9
     510             -93       1       1                               0D     10
     510       6                                                00010000D     11
     510             -93       1       1                               0D     12
     510       7                                                00010000D     13
     510             -93       1       1                               0D     14
     510       8                                                00010000D     15
     510             -93       1       1                               0D     16
     510       9                                                00010000D     17
     510             -93       1       1                               0D     18
     510      10                                                00010000D     19
     510             -93       1       1                               0D     20
     508      11                                                00010000D     21
     508                       1       1                               0D     22
     508      12                                                00010000D     23
     508                       1       1                               0D     24
     508      13                                                00010000D     25
     508                       1       1                               0D     26
     508      14                                                00010000D     27
     508                       1       1                               0D     28
     508      15                                                00010000D     29
     508                       1       1                               0D     30
     508      16                                                00010000D     31
     508                       1       1                               0D     32
     508      17                                                00010000D     33
     508                       1       1                               0D     34
     508      18                                                00010000D     35
     508                       1       1                               0D     36
     508      19                                                00010000D     37
     508                       1       1                               0D     38
     508      20                                                00010000D     39
     508                       1       1                               0D     40
     126      21                                                00010000D     41
     126       0              10       0                               0D     42
     126      31                                                00010000D     43
     126       0               4       0                               0D     44
     126      35                                                00010000D     45
     126       0              12       0                               0D     46
     126      47                                                00010000D     47
     126       0              10       0                               0D     48
     126      57                                                00010000D     49
     126       0               6       0                               0D     50
     126      63                                                00010000D     51
     126       0               6       0                               0D     52
     126      69                                                00010000D     53
     126       0               4       0                               0D     54
     126      73                                                00010000D     55
     126       0               3       0                               0D     56
     126      76                                                00010000D     57
     126       0              10       0                               0D     58
     126      86                                                00010000D     59
     126       0              10       0                               0D     60
     126      96                                                00010000D     61
     126       0               3       0                               0D     62
     126      99                                                00010000D     63
     126       0              10       0                               0D     64
     126     109                                                00010000D     65
     126       0               3       0                               0D     66
     126     112                                                00010000D     67
     126       0              10       0                               0D     68
     126     122                                                00010000D     69
     126       0               3       0                               0D     70
     128     125                                                00010000D     71
     128       0     -93      20       0                               0D     72
     128     145                                                00010000D     73
     128       0     -93       3       0                               0D     74
     128     148                                                00010000D     75
     128       0     -93      18       0                               0D     76
     128     166                                                00010000D     77
     128       0     -93      13       0                               0D     78
     128     179                                                00010000D     79
     128       0     -93      13       0                               0D     80
     128     192                                                00010000D     81
     128       0     -93      15       0                               0D     82
     128     207                                                00010000D     83
     128       0     -93       3       0                               0D     84
     128     210                                                00010000D     85
     128       0     -93      13       0                               0D     86
     502     223                                                00010000D     87
     502                       6       1                               0D     88
     504     229                                                00010001D     89
     504                       4       1                               0D     90
     406     233                                                00000000D     91
     406                       1      15                               0D     92
     314     234                                                00000200D     93
     314                       1       0                               0D     94
186,3,1,0,0,1,91;                                                      1P      1
514,8,5,1,7,1,9,1,11,1,13,1,15,1,17,1,19,1;                            3P      2
510,71,1,1,21;                                                         5P      3
510,73,2,1,23,25;                                                      7P      4
510,75,1,1,27;                                                         9P      5
510,77,1,1,29;                                                        11P      6
510,79,1,1,31;                                                        13P      7
510,81,1,1,33;                                                        15P      8
510,83,2,1,35,37;                                                     17P      9
510,85,1,1,39;                                                        19P     10
508,4,0,89,1,1,0,0,89,2,1,0,0,89,3,1,0,0,89,2,0,0;                    21P     11
508,1,0,89,4,0,0;                                                     23P     12
508,1,0,89,1,0,0;                                                     25P     13
508,5,0,89,5,0,0,0,89,6,0,0,0,89,7,1,0,0,89,3,0,0,0,89,7,0,0;         27P     14
508,4,0,89,4,1,0,0,89,8,1,0,0,89,9,1,0,0,89,8,0,0;                    29P     15
508,4,0,89,10,0,0,0,89,11,1,0,0,89,9,0,0,0,89,11,0,0;                 31P     16
508,5,0,89,12,1,0,0,89,13,1,0,0,89,5,1,0,0,89,6,1,0,0,89,13,0,0;      33P     17
508,1,0,89,14,0,0;                                                    35P     18
508,1,0,89,12,0,0;                                                    37P     19
508,4,0,89,14,1,0,0,89,15,1,0,0,89,10,1,0,0,89,15,0,0;                39P     20
126,8,2,0,1,0,0,-3.14159265358979,-3.14159265358979,                  41P     21
-3.14159265358979,-1.5707963267949,-1.5707963267949,0.,0.,            41P     22
1.5707963267949,1.5707963267949,3.14159265358979,                     41P     23
3.14159265358979,3.14159265358979,1.,0.707106781186548,1.,            41P     24
0.707106781186548,1.,0.707106781186548,1.,0.707106781186548,1.,       41P     25
-22.9225,2.80719662534552D-15,0.,-22.9225,22.9225,0.,                 41P     26
1.40359831267276D-15,22.9225,0.,22.9225,22.9225,0.,22.9225,0.,        41P     27
0.,22.9225,-22.9225,0.,1.40359831267276D-15,-22.9225,0.,              41P     28
-22.9225,-22.9225,0.,-22.9225,-2.80719662534552D-15,0.,               41P     29
-3.14159265358979,3.14159265358979,0.,0.,0.;                          41P     30
126,1,1,0,0,1,0,-0.0155939305587506,-0.0155939305587506,              43P     31
0.0155939305587506,0.0155939305587506,1.,1.,-22.9225,0.,              43P     32
-3.46944695195361D-17,-22.4225,0.,0.499999999999998,                  43P     33
-0.0155939305587506,0.0155939305587506,0.,0.,0.;                      43P     34
126,8,2,0,1,0,0,-3.14159265358979,-3.14159265358979,                  45P     35
-3.14159265358979,-1.5707963267949,-1.5707963267949,0.,0.,            45P     36
1.5707963267949,1.5707963267949,3.14159265358979,                     45P     37
3.14159265358979,3.14159265358979,1.,0.707106781186548,1.,            45P     38
0.707106781186548,1.,0.707106781186548,1.,0.707106781186548,1.,       45P     39
-22.4225,-2.74596428538815D-15,0.499999999999998,-22.4225,            45P     40
-22.4225,0.499999999999998,1.37298214269408D-15,-22.4225,             45P     41
0.499999999999998,22.4225,-22.4225,0.499999999999998,22.4225,0.,      45P     42
0.499999999999998,22.4225,22.4225,0.499999999999998,                  45P     43
1.37298214269408D-15,22.4225,0.499999999999998,-22.4225,22.4225,      45P     44
0.499999999999998,-22.4225,2.74596428538815D-15,                      45P     45
0.499999999999998,-3.14159265358979,3.14159265358979,0.,0.,0.;        45P     46
126,8,2,0,1,0,0,-3.14159265358979,-3.14159265358979,                  47P     47
-3.14159265358979,-1.5707963267949,-1.5707963267949,0.,0.,            47P     48
1.5707963267949,1.5707963267949,3.14159265358979,                     47P     49
3.14159265358979,3.14159265358979,1.,0.707106781186548,1.,            47P     50
0.707106781186547,1.,0.707106781186547,1.,0.707106781186548,1.,       47P     51
26.5,3.24531401774049D-15,0.,26.5,26.5,0.,-1.62265700887024D-15,      47P     52
26.5,0.,-26.5,26.5,0.,-26.5,0.,0.,-26.5,-26.5,0.,                     47P     53
-1.62265700887024D-15,-26.5,0.,26.5,-26.5,0.,26.5,                    47P     54
-3.24531401774049D-15,0.,-3.14159265358979,3.14159265358979,0.,       47P     55
0.,0.;                                                                47P     56
126,4,2,0,0,0,0,-3.14159265358979,-3.14159265358979,                  49P     57
-3.14159265358979,-1.5707963267949,-1.5707963267949,0.,0.,0.,1.,      49P     58
0.707106781186548,1.,0.707106781186548,1.,22.4225,                    49P     59
-2.74596428538815D-15,39.5,22.4225,-22.4225,39.5,                     49P     60
-1.37298214269408D-15,-22.4225,39.5,-22.4225,-22.4225,39.5,           49P     61
-22.4225,0.,39.5,-3.14159265358979,0.,0.,0.,0.;                       49P     62
126,4,2,0,0,0,0,0.,0.,0.,1.5707963267949,1.5707963267949,             51P     63
3.14159265358979,3.14159265358979,3.14159265358979,1.,                51P     64
0.707106781186548,1.,0.707106781186548,1.,-22.4225,0.,39.5,           51P     65
-22.4225,22.4225,39.5,-1.37298214269408D-15,22.4225,39.5,             51P     66
22.4225,22.4225,39.5,22.4225,2.74596428538815D-15,39.5,0.,            51P     67
3.14159265358979,0.,0.,0.;                                            51P     68
126,1,1,0,0,1,0,-3.82245727501435,-3.82245727501435,                  53P     69
-2.08313293562311,-2.08313293562311,1.,1.,-22.4225,0.,39.5,           53P     70
-22.4225,0.,0.499999999999998,-3.82245727501435,                      53P     71
-2.08313293562311,0.,0.,0.;                                           53P     72
126,1,1,0,0,1,0,-0.0132169491810569,-0.0132169491810569,              55P     73
0.0132169491810569,0.0132169491810569,1.,1.,26.5,0.,0.,27.,0.,        55P     74
0.5,-0.0132169491810569,0.0132169491810569,0.,0.,0.;                  55P     75
126,8,2,0,1,0,0,-3.14159265358979,-3.14159265358979,                  57P     76
-3.14159265358979,-1.5707963267949,-1.5707963267949,0.,0.,            57P     77
1.5707963267949,1.5707963267949,3.14159265358979,                     57P     78
3.14159265358979,3.14159265358979,1.,0.707106781186548,1.,            57P     79
0.707106781186547,1.,0.707106781186547,1.,0.707106781186548,1.,       57P     80
27.,-3.30654635769785D-15,0.5,27.,-27.,0.5,                           57P     81
-1.65327317884893D-15,-27.,0.5,-27.,-27.,0.5,-27.,0.,0.5,-27.,        57P     82
27.,0.5,-1.65327317884893D-15,27.,0.5,27.,27.,0.5,27.,                57P     83
3.30654635769785D-15,0.5,-3.14159265358979,3.14159265358979,0.,       57P     84
0.,0.;                                                                57P     85
126,8,2,0,1,0,0,-3.14159265358979,-3.14159265358979,                  59P     86
-3.14159265358979,-1.5707963267949,-1.5707963267949,0.,0.,            59P     87
1.5707963267949,1.5707963267949,3.14159265358979,                     59P     88
3.14159265358979,3.14159265358979,1.,0.707106781186548,1.,            59P     89
0.707106781186547,1.,0.707106781186547,1.,0.707106781186548,1.,       59P     90
27.,3.30654635769785D-15,39.5,27.,27.,39.5,                           59P     91
-1.65327317884893D-15,27.,39.5,-27.,27.,39.5,-27.,0.,39.5,-27.,       59P     92
-27.,39.5,-1.65327317884893D-15,-27.,39.5,27.,-27.,39.5,27.,          59P     93
-3.30654635769785D-15,39.5,-3.14159265358979,3.14159265358979,        59P     94
0.,0.,0.;                                                             59P     95
126,1,1,0,0,1,0,-1.46296296296296,-1.46296296296296,                  61P     96
-0.0185185185185185,-0.0185185185185185,1.,1.,27.,0.,39.5,27.,        61P     97
0.,0.5,-1.46296296296296,-0.0185185185185185,0.,0.,0.;                61P     98
126,8,2,0,1,0,0,-3.14159265358979,-3.14159265358979,                  63P     99
-3.14159265358979,-1.5707963267949,-1.5707963267949,0.,0.,            63P    100
1.5707963267949,1.5707963267949,3.14159265358979,                     63P    101
3.14159265358979,3.14159265358979,1.,0.707106781186548,1.,            63P    102
0.707106781186548,1.,0.707106781186548,1.,0.707106781186548,1.,       63P    103
22.9225,2.80719662534552D-15,40.,22.9225,22.9225,40.,                 63P    104
-1.40359831267276D-15,22.9225,40.,-22.9225,22.9225,40.,-22.9225,      63P    105
0.,40.,-22.9225,-22.9225,40.,-1.40359831267276D-15,-22.9225,40.,      63P    106
22.9225,-22.9225,40.,22.9225,-2.80719662534552D-15,40.,               63P    107
-3.14159265358979,3.14159265358979,0.,0.,0.;                          63P    108
126,1,1,0,0,1,0,-0.0155939305587507,-0.0155939305587507,              65P    109
0.0155939305587507,0.0155939305587507,1.,1.,22.9225,0.,40.,           65P    110
22.4225,0.,39.5,-0.0155939305587507,0.0155939305587507,0.,0.,0.;      65P    111
126,8,2,0,1,0,0,-3.14159265358979,-3.14159265358979,                  67P    112
-3.14159265358979,-1.5707963267949,-1.5707963267949,0.,0.,            67P    113
1.5707963267949,1.5707963267949,3.14159265358979,                     67P    114
3.14159265358979,3.14159265358979,1.,0.707106781186548,1.,            67P    115
0.707106781186547,1.,0.707106781186547,1.,0.707106781186548,1.,       67P    116
26.5,-3.24531401774049D-15,40.,26.5,-26.5,40.,                        67P    117
-1.62265700887024D-15,-26.5,40.,-26.5,-26.5,40.,-26.5,0.,40.,         67P    118
-26.5,26.5,40.,-1.62265700887024D-15,26.5,40.,26.5,26.5,40.,          67P    119
26.5,3.24531401774049D-15,40.,-3.14159265358979,                      67P    120
3.14159265358979,0.,0.,0.;                                            67P    121
126,1,1,0,0,1,0,-0.0132169491810569,-0.0132169491810569,              69P    122
0.0132169491810569,0.0132169491810569,1.,1.,26.5,0.,40.,27.,0.,       69P    123
39.5,-0.0132169491810569,0.0132169491810569,0.,0.,0.;                 69P    124
128,1,8,1,2,0,1,0,0,0,-0.0155939305587506,-0.0155939305587506,        71P    125
0.0155939305587506,0.0155939305587506,-3.14159265358979,              71P    126
-3.14159265358979,-3.14159265358979,-1.5707963267949,                 71P    127
-1.5707963267949,0.,0.,1.5707963267949,1.5707963267949,               71P    128
3.14159265358979,3.14159265358979,3.14159265358979,1.,1.,             71P    129
0.707106781186548,0.707106781186548,1.,1.,0.707106781186548,          71P    130
0.707106781186548,1.,1.,0.707106781186548,0.707106781186548,1.,       71P    131
1.,0.707106781186548,0.707106781186548,1.,1.,-22.4225,0.,             71P    132
0.499999999999998,-22.9225,0.,-3.46944695195361D-17,-22.4225,         71P    133
22.4225,0.499999999999998,-22.9225,22.9225,                           71P    134
-3.46944695195361D-17,0.,22.4225,0.499999999999998,0.,22.9225,        71P    135
-3.46944695195361D-17,22.4225,22.4225,0.499999999999998,22.9225,      71P    136
22.9225,-3.46944695195361D-17,22.4225,0.,0.499999999999998,           71P    137
22.9225,0.,-3.46944695195361D-17,22.4225,-22.4225,                    71P    138
0.499999999999998,22.9225,-22.9225,-3.46944695195361D-17,0.,          71P    139
-22.4225,0.499999999999998,0.,-22.9225,-3.46944695195361D-17,         71P    140
-22.4225,-22.4225,0.499999999999998,-22.9225,-22.9225,                71P    141
-3.46944695195361D-17,-22.4225,0.,0.499999999999998,-22.9225,0.,      71P    142
-3.46944695195361D-17,-0.0155939305587506,0.0155939305587506,         71P    143
-3.14159265358979,3.14159265358979;                                   71P    144
128,1,1,1,1,0,0,1,0,0,-2.65,-2.65,2.65,2.65,-2.65,-2.65,2.65,         73P    145
2.65,1.,1.,1.,1.,26.5,-26.5,0.,-26.5,-26.5,0.,26.5,26.5,0.,           73P    146
-26.5,26.5,0.,-2.65,2.65,-2.65,2.65;                                  73P    147
128,1,8,1,2,0,1,0,0,0,-3.82245727501435,-3.82245727501435,            75P    148
-2.08313293562311,-2.08313293562311,-3.14159265358979,                75P    149
-3.14159265358979,-3.14159265358979,-1.5707963267949,                 75P    150
-1.5707963267949,0.,0.,1.5707963267949,1.5707963267949,               75P    151
3.14159265358979,3.14159265358979,3.14159265358979,1.,1.,             75P    152
0.707106781186548,0.707106781186548,1.,1.,0.707106781186548,          75P    153
0.707106781186548,1.,1.,0.707106781186548,0.707106781186548,1.,       75P    154
1.,0.707106781186548,0.707106781186548,1.,1.,-22.4225,0.,             75P    155
0.499999999999998,-22.4225,0.,39.5,-22.4225,-22.4225,                 75P    156
0.499999999999998,-22.4225,-22.4225,39.5,0.,-22.4225,                 75P    157
0.499999999999998,0.,-22.4225,39.5,22.4225,-22.4225,                  75P    158
0.499999999999998,22.4225,-22.4225,39.5,22.4225,0.,                   75P    159
0.499999999999998,22.4225,0.,39.5,22.4225,22.4225,                    75P    160
0.499999999999998,22.4225,22.4225,39.5,0.,22.4225,                    75P    161
0.499999999999998,0.,22.4225,39.5,-22.4225,22.4225,                   75P    162
0.499999999999998,-22.4225,22.4225,39.5,-22.4225,0.,                  75P    163
0.499999999999998,-22.4225,0.,39.5,-3.82245727501435,                 75P    164
-2.08313293562311,-3.14159265358979,3.14159265358979;                 75P    165
128,1,8,1,2,0,1,0,0,0,-0.0132169491810569,-0.0132169491810569,        77P    166
0.0132169491810569,0.0132169491810569,-3.14159265358979,              77P    167
-3.14159265358979,-3.14159265358979,-1.5707963267949,                 77P    168
-1.5707963267949,0.,0.,1.5707963267949,1.5707963267949,               77P    169
3.14159265358979,3.14159265358979,3.14159265358979,1.,1.,             77P    170
0.707106781186548,0.707106781186548,1.,1.,0.707106781186548,          77P    171
0.707106781186548,1.,1.,0.707106781186548,0.707106781186548,1.,       77P    172
1.,0.707106781186548,0.707106781186548,1.,1.,26.5,0.,0.,27.,0.,       77P    173
0.5,26.5,-26.5,0.,27.,-27.,0.5,0.,-26.5,0.,0.,-27.,0.5,-26.5,         77P    174
-26.5,0.,-27.,-27.,0.5,-26.5,0.,0.,-27.,0.,0.5,-26.5,26.5,0.,         77P    175
-27.,27.,0.5,0.,26.5,0.,0.,27.,0.5,26.5,26.5,0.,27.,27.,0.5,          77P    176
26.5,0.,0.,27.,0.,0.5,-0.0132169491810569,0.0132169491810569,         77P    177
-3.14159265358979,3.14159265358979;                                   77P    178
128,1,8,1,2,0,1,0,0,0,0.0185185185185185,0.0185185185185185,          79P    179
1.46296296296296,1.46296296296296,-3.14159265358979,                  79P    180
-3.14159265358979,-3.14159265358979,-1.5707963267949,                 79P    181
-1.5707963267949,0.,0.,1.5707963267949,1.5707963267949,               79P    182
3.14159265358979,3.14159265358979,3.14159265358979,1.,1.,             79P    183
0.707106781186548,0.707106781186548,1.,1.,0.707106781186548,          79P    184
0.707106781186548,1.,1.,0.707106781186548,0.707106781186548,1.,       79P    185
1.,0.707106781186548,0.707106781186548,1.,1.,27.,0.,39.5,27.,0.,      79P    186
0.5,27.,27.,39.5,27.,27.,0.5,0.,27.,39.5,0.,27.,0.5,-27.,27.,         79P    187
39.5,-27.,27.,0.5,-27.,0.,39.5,-27.,0.,0.5,-27.,-27.,39.5,-27.,       79P    188
-27.,0.5,0.,-27.,39.5,0.,-27.,0.5,27.,-27.,39.5,27.,-27.,0.5,         79P    189
27.,0.,39.5,27.,0.,0.5,0.0185185185185185,1.46296296296296,           79P    190
-3.14159265358979,3.14159265358979;                                   79P    191
128,1,8,1,2,0,1,0,0,0,-0.0155939305587507,-0.0155939305587507,        81P    192
0.0155939305587507,0.0155939305587507,-3.14159265358979,              81P    193
-3.14159265358979,-3.14159265358979,-1.5707963267949,                 81P    194
-1.5707963267949,0.,0.,1.5707963267949,1.5707963267949,               81P    195
3.14159265358979,3.14159265358979,3.14159265358979,1.,1.,             81P    196
0.707106781186548,0.707106781186548,1.,1.,0.707106781186548,          81P    197
0.707106781186548,1.,1.,0.707106781186548,0.707106781186548,1.,       81P    198
1.,0.707106781186548,0.707106781186548,1.,1.,22.4225,0.,39.5,         81P    199
22.9225,0.,40.,22.4225,22.4225,39.5,22.9225,22.9225,40.,0.,           81P    200
22.4225,39.5,0.,22.9225,40.,-22.4225,22.4225,39.5,-22.9225,           81P    201
22.9225,40.,-22.4225,0.,39.5,-22.9225,0.,40.,-22.4225,-22.4225,       81P    202
39.5,-22.9225,-22.9225,40.,0.,-22.4225,39.5,0.,-22.9225,40.,          81P    203
22.4225,-22.4225,39.5,22.9225,-22.9225,40.,22.4225,0.,39.5,           81P    204
22.9225,0.,40.,-0.0155939305587507,0.0155939305587507,                81P    205
-3.14159265358979,3.14159265358979;                                   81P    206
128,1,1,1,1,0,0,1,0,0,-2.65,-2.65,2.65,2.65,-2.65,-2.65,2.65,         83P    207
2.65,1.,1.,1.,1.,-26.5,-26.5,40.,26.5,-26.5,40.,-26.5,26.5,40.,       83P    208
26.5,26.5,40.,-2.65,2.65,-2.65,2.65;                                  83P    209
128,1,8,1,2,0,1,0,0,0,-0.0132169491810569,-0.0132169491810569,        85P    210
0.0132169491810569,0.0132169491810569,-3.14159265358979,              85P    211
-3.14159265358979,-3.14159265358979,-1.5707963267949,                 85P    212
-1.5707963267949,0.,0.,1.5707963267949,1.5707963267949,               85P    213
3.14159265358979,3.14159265358979,3.14159265358979,1.,1.,             85P    214
0.707106781186548,0.707106781186548,1.,1.,0.707106781186548,          85P    215
0.707106781186548,1.,1.,0.707106781186548,0.707106781186548,1.,       85P    216
1.,0.707106781186548,0.707106781186548,1.,1.,26.5,0.,40.,27.,0.,      85P    217
39.5,26.5,26.5,40.,27.,27.,39.5,0.,26.5,40.,0.,27.,39.5,-26.5,        85P    218
26.5,40.,-27.,27.,39.5,-26.5,0.,40.,-27.,0.,39.5,-26.5,-26.5,         85P    219
40.,-27.,-27.,39.5,0.,-26.5,40.,0.,-27.,39.5,26.5,-26.5,40.,27.,      85P    220
-27.,39.5,26.5,0.,40.,27.,0.,39.5,-0.0132169491810569,                85P    221
0.0132169491810569,-3.14159265358979,3.14159265358979;                85P    222
502,9,-22.9225,2.80719662534552D-15,0.,-22.4225,                      87P    223
-2.74596428538815D-15,0.499999999999998,26.5,                         87P    224
3.24531401774049D-15,0.,22.4225,-2.74596428538815D-15,39.5,           87P    225
-22.4225,0.,39.5,27.,-3.30654635769785D-15,0.5,27.,                   87P    226
3.30654635769785D-15,39.5,22.9225,2.80719662534552D-15,40.,26.5,      87P    227
-3.24531401774049D-15,40.;                                            87P    228
504,15,41,87,1,87,1,43,87,1,87,2,45,87,2,87,2,47,87,3,87,3,49,        89P    229
87,4,87,5,51,87,5,87,4,53,87,5,87,2,55,87,3,87,6,57,87,6,87,6,        89P    230
59,87,7,87,7,61,87,7,87,6,63,87,8,87,8,65,87,8,87,4,67,87,9,87,       89P    231
9,69,87,9,87,7;                                                       89P    232
406,1,8HTěleso1;                                                     91P    233
314,74.5098039215686,73.7254901960784,72.9411764705882,;              93P    234
S      1G      4D     94P    234                                        T      1
