                                                                        S      1
,,31HNátrubek s vnitřním závitem,11H20520120000,22HAutodesk InventorG      1
 2015,7Hunknown,32,38,7,99,15,,1.,2,2HMM,1,0.08,15H20160301.124521,0.01,G      2
10000.,14HStruska Martin,40HBupospol, Armaturka Koukol, spol. s.r.o.,11,G      3
0,15H20140923.063551;                                                   G      4
     186       1                                                00000000D      1
     186             -93       1       0                               0D      2
     514       2                                                00010000D      3
     514                       1       1                               0D      4
     510       3                                                00010000D      5
     510             -93       1       1                               0D      6
     510       4                                                00010000D      7
     510             -93       1       1                               0D      8
     510       5                                                00010000D      9
     510             -93       1       1                               0D     10
     510       6                                                00010000D     11
     510             -93       1       1                               0D     12
     510       7                                                00010000D     13
     510             -93       1       1                               0D     14
     510       8                                                00010000D     15
     510             -93       1       1                               0D     16
     510       9                                                00010000D     17
     510             -93       1       1                               0D     18
     510      10                                                00010000D     19
     510             -93       1       1                               0D     20
     508      11                                                00010000D     21
     508                       1       1                               0D     22
     508      12                                                00010000D     23
     508                       1       1                               0D     24
     508      13                                                00010000D     25
     508                       1       1                               0D     26
     508      14                                                00010000D     27
     508                       1       1                               0D     28
     508      15                                                00010000D     29
     508                       1       1                               0D     30
     508      16                                                00010000D     31
     508                       1       1                               0D     32
     508      17                                                00010000D     33
     508                       1       1                               0D     34
     508      18                                                00010000D     35
     508                       1       1                               0D     36
     508      19                                                00010000D     37
     508                       1       1                               0D     38
     508      20                                                00010000D     39
     508                       1       1                               0D     40
     126      21                                                00010000D     41
     126       0              10       0                               0D     42
     126      31                                                00010000D     43
     126       0               4       0                               0D     44
     126      35                                                00010000D     45
     126       0              12       0                               0D     46
     126      47                                                00010000D     47
     126       0              10       0                               0D     48
     126      57                                                00010000D     49
     126       0               6       0                               0D     50
     126      63                                                00010000D     51
     126       0               6       0                               0D     52
     126      69                                                00010000D     53
     126       0               4       0                               0D     54
     126      73                                                00010000D     55
     126       0               4       0                               0D     56
     126      77                                                00010000D     57
     126       0              10       0                               0D     58
     126      87                                                00010000D     59
     126       0              10       0                               0D     60
     126      97                                                00010000D     61
     126       0               3       0                               0D     62
     126     100                                                00010000D     63
     126       0              10       0                               0D     64
     126     110                                                00010000D     65
     126       0               4       0                               0D     66
     126     114                                                00010000D     67
     126       0              10       0                               0D     68
     126     124                                                00010000D     69
     126       0               3       0                               0D     70
     128     127                                                00010000D     71
     128       0     -93      19       0                               0D     72
     128     146                                                00010000D     73
     128       0     -93       3       0                               0D     74
     128     149                                                00010000D     75
     128       0     -93      18       0                               0D     76
     128     167                                                00010000D     77
     128       0     -93      19       0                               0D     78
     128     186                                                00010000D     79
     128       0     -93      14       0                               0D     80
     128     200                                                00010000D     81
     128       0     -93      15       0                               0D     82
     128     215                                                00010000D     83
     128       0     -93       3       0                               0D     84
     128     218                                                00010000D     85
     128       0     -93      13       0                               0D     86
     502     231                                                00010000D     87
     502                       6       1                               0D     88
     504     237                                                00010001D     89
     504                       4       1                               0D     90
     406     241                                                00000000D     91
     406                       1      15                               0D     92
     314     242                                                00000200D     93
     314                       1       0                               0D     94
186,3,1,0,0,1,91;                                                      1P      1
514,8,5,1,7,1,9,1,11,1,13,1,15,1,17,1,19,1;                            3P      2
510,71,1,1,21;                                                         5P      3
510,73,2,1,23,25;                                                      7P      4
510,75,1,1,27;                                                         9P      5
510,77,1,1,29;                                                        11P      6
510,79,1,1,31;                                                        13P      7
510,81,1,1,33;                                                        15P      8
510,83,2,1,35,37;                                                     17P      9
510,85,1,1,39;                                                        19P     10
508,4,0,89,1,1,0,0,89,2,1,0,0,89,3,1,0,0,89,2,0,0;                    21P     11
508,1,0,89,4,0,0;                                                     23P     12
508,1,0,89,1,0,0;                                                     25P     13
508,5,0,89,5,0,0,0,89,6,0,0,0,89,7,1,0,0,89,3,0,0,0,89,7,0,0;         27P     14
508,4,0,89,4,1,0,0,89,8,1,0,0,89,9,1,0,0,89,8,0,0;                    29P     15
508,4,0,89,10,0,0,0,89,11,1,0,0,89,9,0,0,0,89,11,0,0;                 31P     16
508,5,0,89,12,1,0,0,89,13,1,0,0,89,5,1,0,0,89,6,1,0,0,89,13,0,0;      33P     17
508,1,0,89,14,0,0;                                                    35P     18
508,1,0,89,12,0,0;                                                    37P     19
508,4,0,89,14,1,0,0,89,15,1,0,0,89,10,1,0,0,89,15,0,0;                39P     20
126,8,2,0,1,0,0,-3.14159265358979,-3.14159265358979,                  41P     21
-3.14159265358979,-1.5707963267949,-1.5707963267949,0.,0.,            41P     22
1.5707963267949,1.5707963267949,3.14159265358979,                     41P     23
3.14159265358979,3.14159265358979,1.,0.707106781186548,1.,            41P     24
0.707106781186548,1.,0.707106781186548,1.,0.707106781186548,1.,       41P     25
-42.963,5.26145004317677D-15,0.,-42.963,42.963,0.,                    41P     26
2.63072502158839D-15,42.963,0.,42.963,42.963,0.,42.963,0.,0.,         41P     27
42.963,-42.963,0.,2.63072502158839D-15,-42.963,0.,-42.963,            41P     28
-42.963,0.,-42.963,-5.26145004317677D-15,0.,-3.14159265358979,        41P     29
3.14159265358979,0.,0.,0.;                                            41P     30
126,1,1,0,0,1,0,-0.00827741883251639,-0.00827741883251639,            43P     31
0.00827741883251653,0.00827741883251653,1.,1.,-42.963,0.,             43P     32
2.22044604925031D-15,-42.463,0.,0.500000000000009,                    43P     33
-0.00827741883251639,0.00827741883251653,0.,0.,0.;                    43P     34
126,8,2,0,1,0,0,-3.14159265358979,-3.14159265358979,                  45P     35
-3.14159265358979,-1.5707963267949,-1.5707963267949,0.,0.,            45P     36
1.5707963267949,1.5707963267949,3.14159265358979,                     45P     37
3.14159265358979,3.14159265358979,1.,0.707106781186548,1.,            45P     38
0.707106781186548,1.,0.707106781186548,1.,0.707106781186548,1.,       45P     39
-42.463,-5.20021770321941D-15,0.500000000000007,-42.463,-42.463,      45P     40
0.500000000000007,2.6001088516097D-15,-42.463,0.500000000000007,      45P     41
42.463,-42.463,0.500000000000007,42.463,0.,0.500000000000007,         45P     42
42.463,42.463,0.500000000000007,2.6001088516097D-15,42.463,           45P     43
0.500000000000007,-42.463,42.463,0.500000000000007,-42.463,           45P     44
5.20021770321941D-15,0.500000000000007,-3.14159265358979,             45P     45
3.14159265358979,0.,0.,0.;                                            45P     46
126,8,2,0,1,0,0,-3.14159265358979,-3.14159265358979,                  47P     47
-3.14159265358979,-1.5707963267949,-1.5707963267949,0.,0.,            47P     48
1.5707963267949,1.5707963267949,3.14159265358979,                     47P     49
3.14159265358979,3.14159265358979,1.,0.707106781186548,1.,            47P     50
0.707106781186547,1.,0.707106781186547,1.,0.707106781186548,1.,       47P     51
47.,5.75583995599256D-15,0.,47.,47.,0.,-2.87791997799628D-15,         47P     52
47.,0.,-47.,47.,0.,-47.,0.,0.,-47.,-47.,0.,                           47P     53
-2.87791997799628D-15,-47.,0.,47.,-47.,0.,47.,                        47P     54
-5.75583995599256D-15,0.,-3.14159265358979,3.14159265358979,0.,       47P     55
0.,0.;                                                                47P     56
126,4,2,0,0,0,0,-3.14159265358979,-3.14159265358979,                  49P     57
-3.14159265358979,-1.5707963267949,-1.5707963267949,0.,0.,0.,1.,      49P     58
0.707106781186548,1.,0.707106781186548,1.,42.463,                     49P     59
-5.20021770321941D-15,59.5,42.463,-42.463,59.5,                       49P     60
-2.6001088516097D-15,-42.463,59.5,-42.463,-42.463,59.5,-42.463,       49P     61
0.,59.5,-3.14159265358979,0.,0.,0.,0.;                                49P     62
126,4,2,0,0,0,0,0.,0.,0.,1.5707963267949,1.5707963267949,             51P     63
3.14159265358979,3.14159265358979,3.14159265358979,1.,                51P     64
0.707106781186548,1.,0.707106781186548,1.,-42.463,0.,59.5,            51P     65
-42.463,42.463,59.5,-2.6001088516097D-15,42.463,59.5,42.463,          51P     66
42.463,59.5,42.463,5.20021770321941D-15,59.5,0.,                      51P     67
3.14159265358979,0.,0.,0.;                                            51P     68
126,1,1,0,0,1,0,-3.45334502262256,-3.45334502262256,                  53P     69
-2.06390009409655,-2.06390009409655,1.,1.,-42.463,0.,59.5,            53P     70
-42.463,0.,0.500000000000007,-3.45334502262256,                       53P     71
-2.06390009409655,0.,0.,0.;                                           53P     72
126,1,1,0,0,1,0,-0.00748261144112741,-0.00748261144112741,            55P     73
0.00748261144112757,0.00748261144112757,1.,1.,47.,0.,                 55P     74
2.22044604925031D-15,47.5,0.,0.500000000000003,                       55P     75
-0.00748261144112741,0.00748261144112757,0.,0.,0.;                    55P     76
126,8,2,0,1,0,0,-3.14159265358979,-3.14159265358979,                  57P     77
-3.14159265358979,-1.5707963267949,-1.5707963267949,0.,0.,            57P     78
1.5707963267949,1.5707963267949,3.14159265358979,                     57P     79
3.14159265358979,3.14159265358979,1.,0.707106781186547,1.,            57P     80
0.707106781186547,1.,0.707106781186547,1.,0.707106781186547,1.,       57P     81
47.5,-5.81707229594993D-15,0.5,47.5,-47.5,0.5,                        57P     82
-2.90853614797496D-15,-47.5,0.5,-47.5,-47.5,0.5,-47.5,0.,0.5,         57P     83
-47.5,47.5,0.5,-2.90853614797496D-15,47.5,0.5,47.5,47.5,0.5,          57P     84
47.5,5.81707229594993D-15,0.5,-3.14159265358979,                      57P     85
3.14159265358979,0.,0.,0.;                                            57P     86
126,8,2,0,1,0,0,-3.14159265358979,-3.14159265358979,                  59P     87
-3.14159265358979,-1.5707963267949,-1.5707963267949,0.,0.,            59P     88
1.5707963267949,1.5707963267949,3.14159265358979,                     59P     89
3.14159265358979,3.14159265358979,1.,0.707106781186547,1.,            59P     90
0.707106781186547,1.,0.707106781186547,1.,0.707106781186547,1.,       59P     91
47.5,5.81707229594993D-15,59.5,47.5,47.5,59.5,                        59P     92
-2.90853614797496D-15,47.5,59.5,-47.5,47.5,59.5,-47.5,0.,59.5,        59P     93
-47.5,-47.5,59.5,-2.90853614797496D-15,-47.5,59.5,47.5,-47.5,         59P     94
59.5,47.5,-5.81707229594993D-15,59.5,-3.14159265358979,               59P     95
3.14159265358979,0.,0.,0.;                                            59P     96
126,1,1,0,0,1,0,-1.25263157894737,-1.25263157894737,                  61P     97
-0.0105263157894737,-0.0105263157894737,1.,1.,47.5,0.,59.5,47.5,      61P     98
0.,0.5,-1.25263157894737,-0.0105263157894737,0.,0.,0.;                61P     99
126,8,2,0,1,0,0,-3.14159265358979,-3.14159265358979,                  63P    100
-3.14159265358979,-1.5707963267949,-1.5707963267949,0.,0.,            63P    101
1.5707963267949,1.5707963267949,3.14159265358979,                     63P    102
3.14159265358979,3.14159265358979,1.,0.707106781186548,1.,            63P    103
0.707106781186548,1.,0.707106781186548,1.,0.707106781186548,1.,       63P    104
42.963,5.26145004317677D-15,60.,42.963,42.963,60.,                    63P    105
-2.63072502158839D-15,42.963,60.,-42.963,42.963,60.,-42.963,0.,       63P    106
60.,-42.963,-42.963,60.,-2.63072502158839D-15,-42.963,60.,            63P    107
42.963,-42.963,60.,42.963,-5.26145004317677D-15,60.,                  63P    108
-3.14159265358979,3.14159265358979,0.,0.,0.;                          63P    109
126,1,1,0,0,1,0,-0.00827741883251639,-0.00827741883251639,            65P    110
0.00827741883251657,0.00827741883251657,1.,1.,42.963,0.,60.,          65P    111
42.463,0.,59.5,-0.00827741883251639,0.00827741883251657,0.,0.,        65P    112
0.;                                                                   65P    113
126,8,2,0,1,0,0,-3.14159265358979,-3.14159265358979,                  67P    114
-3.14159265358979,-1.5707963267949,-1.5707963267949,0.,0.,            67P    115
1.5707963267949,1.5707963267949,3.14159265358979,                     67P    116
3.14159265358979,3.14159265358979,1.,0.707106781186548,1.,            67P    117
0.707106781186547,1.,0.707106781186547,1.,0.707106781186548,1.,       67P    118
47.,-5.75583995599256D-15,60.,47.,-47.,60.,                           67P    119
-2.87791997799628D-15,-47.,60.,-47.,-47.,60.,-47.,0.,60.,-47.,        67P    120
47.,60.,-2.87791997799628D-15,47.,60.,47.,47.,60.,47.,                67P    121
5.75583995599256D-15,60.,-3.14159265358979,3.14159265358979,0.,       67P    122
0.,0.;                                                                67P    123
126,1,1,0,0,1,0,-0.00748261144112748,-0.00748261144112748,            69P    124
0.00748261144112746,0.00748261144112746,1.,1.,47.,0.,60.,47.5,        69P    125
0.,59.5,-0.00748261144112748,0.00748261144112746,0.,0.,0.;            69P    126
128,1,8,1,2,0,1,0,0,0,-0.00827741883251653,-0.00827741883251653,      71P    127
0.00827741883251639,0.00827741883251639,-3.14159265358979,            71P    128
-3.14159265358979,-3.14159265358979,-1.5707963267949,                 71P    129
-1.5707963267949,0.,0.,1.5707963267949,1.5707963267949,               71P    130
3.14159265358979,3.14159265358979,3.14159265358979,1.,1.,             71P    131
0.707106781186548,0.707106781186548,1.,1.,0.707106781186548,          71P    132
0.707106781186548,1.,1.,0.707106781186548,0.707106781186548,1.,       71P    133
1.,0.707106781186548,0.707106781186548,1.,1.,-42.463,0.,              71P    134
0.500000000000009,-42.963,0.,2.22044604925031D-15,-42.463,            71P    135
42.463,0.500000000000009,-42.963,42.963,2.22044604925031D-15,0.,      71P    136
42.463,0.500000000000009,0.,42.963,2.22044604925031D-15,42.463,       71P    137
42.463,0.500000000000009,42.963,42.963,2.22044604925031D-15,          71P    138
42.463,0.,0.500000000000009,42.963,0.,2.22044604925031D-15,           71P    139
42.463,-42.463,0.500000000000009,42.963,-42.963,                      71P    140
2.22044604925031D-15,0.,-42.463,0.500000000000009,0.,-42.963,         71P    141
2.22044604925031D-15,-42.463,-42.463,0.500000000000009,-42.963,       71P    142
-42.963,2.22044604925031D-15,-42.463,0.,0.500000000000009,            71P    143
-42.963,0.,2.22044604925031D-15,-0.00827741883251653,                 71P    144
0.00827741883251639,-3.14159265358979,3.14159265358979;               71P    145
128,1,1,1,1,0,0,1,0,0,-4.7,-4.7,4.7,4.7,-4.7,-4.7,4.7,4.7,1.,1.,      73P    146
1.,1.,47.,-47.,0.,-47.,-47.,0.,47.,47.,0.,-47.,47.,0.,-4.7,4.7,       73P    147
-4.7,4.7;                                                             73P    148
128,1,8,1,2,0,1,0,0,0,-3.45334502262256,-3.45334502262256,            75P    149
-2.06390009409655,-2.06390009409655,-3.14159265358979,                75P    150
-3.14159265358979,-3.14159265358979,-1.5707963267949,                 75P    151
-1.5707963267949,0.,0.,1.5707963267949,1.5707963267949,               75P    152
3.14159265358979,3.14159265358979,3.14159265358979,1.,1.,             75P    153
0.707106781186548,0.707106781186548,1.,1.,0.707106781186548,          75P    154
0.707106781186548,1.,1.,0.707106781186548,0.707106781186548,1.,       75P    155
1.,0.707106781186548,0.707106781186548,1.,1.,-42.463,0.,              75P    156
0.500000000000007,-42.463,0.,59.5,-42.463,-42.463,                    75P    157
0.500000000000007,-42.463,-42.463,59.5,0.,-42.463,                    75P    158
0.500000000000007,0.,-42.463,59.5,42.463,-42.463,                     75P    159
0.500000000000007,42.463,-42.463,59.5,42.463,0.,                      75P    160
0.500000000000007,42.463,0.,59.5,42.463,42.463,                       75P    161
0.500000000000007,42.463,42.463,59.5,0.,42.463,                       75P    162
0.500000000000007,0.,42.463,59.5,-42.463,42.463,                      75P    163
0.500000000000007,-42.463,42.463,59.5,-42.463,0.,                     75P    164
0.500000000000007,-42.463,0.,59.5,-3.45334502262256,                  75P    165
-2.06390009409655,-3.14159265358979,3.14159265358979;                 75P    166
128,1,8,1,2,0,1,0,0,0,-0.00748261144112757,-0.00748261144112757,      77P    167
0.00748261144112741,0.00748261144112741,-3.14159265358979,            77P    168
-3.14159265358979,-3.14159265358979,-1.5707963267949,                 77P    169
-1.5707963267949,0.,0.,1.5707963267949,1.5707963267949,               77P    170
3.14159265358979,3.14159265358979,3.14159265358979,1.,1.,             77P    171
0.707106781186548,0.707106781186548,1.,1.,0.707106781186548,          77P    172
0.707106781186548,1.,1.,0.707106781186548,0.707106781186548,1.,       77P    173
1.,0.707106781186548,0.707106781186548,1.,1.,47.,0.,                  77P    174
2.22044604925031D-15,47.5,0.,0.500000000000003,47.,-47.,              77P    175
2.22044604925031D-15,47.5,-47.5,0.500000000000003,0.,-47.,            77P    176
2.22044604925031D-15,0.,-47.5,0.500000000000003,-47.,-47.,            77P    177
2.22044604925031D-15,-47.5,-47.5,0.500000000000003,-47.,0.,           77P    178
2.22044604925031D-15,-47.5,0.,0.500000000000003,-47.,47.,             77P    179
2.22044604925031D-15,-47.5,47.5,0.500000000000003,0.,47.,             77P    180
2.22044604925031D-15,0.,47.5,0.500000000000003,47.,47.,               77P    181
2.22044604925031D-15,47.5,47.5,0.500000000000003,47.,0.,              77P    182
2.22044604925031D-15,47.5,0.,0.500000000000003,                       77P    183
-0.00748261144112757,0.00748261144112741,-3.14159265358979,           77P    184
3.14159265358979;                                                     77P    185
128,1,8,1,2,0,1,0,0,0,0.0105263157894737,0.0105263157894737,          79P    186
1.25263157894737,1.25263157894737,-3.14159265358979,                  79P    187
-3.14159265358979,-3.14159265358979,-1.5707963267949,                 79P    188
-1.5707963267949,0.,0.,1.5707963267949,1.5707963267949,               79P    189
3.14159265358979,3.14159265358979,3.14159265358979,1.,1.,             79P    190
0.707106781186548,0.707106781186548,1.,1.,0.707106781186548,          79P    191
0.707106781186548,1.,1.,0.707106781186548,0.707106781186548,1.,       79P    192
1.,0.707106781186548,0.707106781186548,1.,1.,47.5,0.,59.5,47.5,       79P    193
0.,0.5,47.5,47.5,59.5,47.5,47.5,0.5,0.,47.5,59.5,0.,47.5,0.5,         79P    194
-47.5,47.5,59.5,-47.5,47.5,0.5,-47.5,0.,59.5,-47.5,0.,0.5,-47.5,      79P    195
-47.5,59.5,-47.5,-47.5,0.5,0.,-47.5,59.5,0.,-47.5,0.5,47.5,           79P    196
-47.5,59.5,47.5,-47.5,0.5,47.5,0.,59.5,47.5,0.,0.5,                   79P    197
0.0105263157894737,1.25263157894737,-3.14159265358979,                79P    198
3.14159265358979;                                                     79P    199
128,1,8,1,2,0,1,0,0,0,-0.00827741883251657,-0.00827741883251657,      81P    200
0.00827741883251639,0.00827741883251639,-3.14159265358979,            81P    201
-3.14159265358979,-3.14159265358979,-1.5707963267949,                 81P    202
-1.5707963267949,0.,0.,1.5707963267949,1.5707963267949,               81P    203
3.14159265358979,3.14159265358979,3.14159265358979,1.,1.,             81P    204
0.707106781186548,0.707106781186548,1.,1.,0.707106781186548,          81P    205
0.707106781186548,1.,1.,0.707106781186548,0.707106781186548,1.,       81P    206
1.,0.707106781186548,0.707106781186548,1.,1.,42.463,0.,59.5,          81P    207
42.963,0.,60.,42.463,42.463,59.5,42.963,42.963,60.,0.,42.463,         81P    208
59.5,0.,42.963,60.,-42.463,42.463,59.5,-42.963,42.963,60.,            81P    209
-42.463,0.,59.5,-42.963,0.,60.,-42.463,-42.463,59.5,-42.963,          81P    210
-42.963,60.,0.,-42.463,59.5,0.,-42.963,60.,42.463,-42.463,59.5,       81P    211
42.963,-42.963,60.,42.463,0.,59.5,42.963,0.,60.,                      81P    212
-0.00827741883251657,0.00827741883251639,-3.14159265358979,           81P    213
3.14159265358979;                                                     81P    214
128,1,1,1,1,0,0,1,0,0,-4.7,-4.7,4.7,4.7,-4.7,-4.7,4.7,4.7,1.,1.,      83P    215
1.,1.,-47.,-47.,60.,47.,-47.,60.,-47.,47.,60.,47.,47.,60.,-4.7,       83P    216
4.7,-4.7,4.7;                                                         83P    217
128,1,8,1,2,0,1,0,0,0,-0.00748261144112746,-0.00748261144112746,      85P    218
0.00748261144112748,0.00748261144112748,-3.14159265358979,            85P    219
-3.14159265358979,-3.14159265358979,-1.5707963267949,                 85P    220
-1.5707963267949,0.,0.,1.5707963267949,1.5707963267949,               85P    221
3.14159265358979,3.14159265358979,3.14159265358979,1.,1.,             85P    222
0.707106781186548,0.707106781186548,1.,1.,0.707106781186548,          85P    223
0.707106781186548,1.,1.,0.707106781186548,0.707106781186548,1.,       85P    224
1.,0.707106781186548,0.707106781186548,1.,1.,47.,0.,60.,47.5,0.,      85P    225
59.5,47.,47.,60.,47.5,47.5,59.5,0.,47.,60.,0.,47.5,59.5,-47.,         85P    226
47.,60.,-47.5,47.5,59.5,-47.,0.,60.,-47.5,0.,59.5,-47.,-47.,60.,      85P    227
-47.5,-47.5,59.5,0.,-47.,60.,0.,-47.5,59.5,47.,-47.,60.,47.5,         85P    228
-47.5,59.5,47.,0.,60.,47.5,0.,59.5,-0.00748261144112746,              85P    229
0.00748261144112748,-3.14159265358979,3.14159265358979;               85P    230
502,9,-42.963,5.26145004317677D-15,0.,-42.463,                        87P    231
-5.20021770321941D-15,0.500000000000007,47.,                          87P    232
5.75583995599256D-15,0.,42.463,-5.20021770321941D-15,59.5,            87P    233
-42.463,0.,59.5,47.5,-5.81707229594993D-15,0.5,47.5,                  87P    234
5.81707229594993D-15,59.5,42.963,5.26145004317677D-15,60.,47.,        87P    235
-5.75583995599256D-15,60.;                                            87P    236
504,15,41,87,1,87,1,43,87,1,87,2,45,87,2,87,2,47,87,3,87,3,49,        89P    237
87,4,87,5,51,87,5,87,4,53,87,5,87,2,55,87,3,87,6,57,87,6,87,6,        89P    238
59,87,7,87,7,61,87,7,87,6,63,87,8,87,8,65,87,8,87,4,67,87,9,87,       89P    239
9,69,87,9,87,7;                                                       89P    240
406,1,8HTěleso1;                                                     91P    241
314,74.5098039215686,73.7254901960784,72.9411764705882,;              93P    242
S      1G      4D     94P    242                                        T      1
