ISO-10303-21;
HEADER;
/* Generated by software containing ST-Developer
 * from STEP Tools, Inc. (www.steptools.com) 
 */

FILE_DESCRIPTION(
/* description */ (''),
/* implementation_level */ '2;1');

FILE_NAME(
/* name */ 
'C:\\Vault_Workspace\\DATA\\Katalog Bupospol\\2 Potrubn\X\ED d\X\EDly\\
2.6 Hadicov\X\E9 n\X\E1stavce\\26010\\26010\\26010010000.stp',
/* time_stamp */ '2016-03-08T11:16:25+01:00',
/* author */ ('Struska'),
/* organization */ ('BUPOSPOL'),
/* preprocessor_version */ 'ST-DEVELOPER v15.6',
/* originating_system */ 'Autodesk Inventor 2015',
/* authorisation */ '');

FILE_SCHEMA (('CONFIG_CONTROL_DESIGN'));
ENDSEC;

DATA;
#10=MECHANICAL_DESIGN_GEOMETRIC_PRESENTATION_REPRESENTATION('',(#277,#278,
#264,#274,#276,#275,#267,#254,#265,#263,#266,#268,#262,#261,#260,#273,#259,
#258,#257,#256,#272,#255,#271,#270,#269),#527);
#11=SHAPE_REPRESENTATION_RELATIONSHIP('SRR','None',#536,#12);
#12=ADVANCED_BREP_SHAPE_REPRESENTATION($,(#13),#526);
#13=MANIFOLD_SOLID_BREP('T\X2\011B\X0\leso1',#303);
#14=CONICAL_SURFACE('',#321,7.11835368270871,6.99999999999998);
#15=CONICAL_SURFACE('',#325,7.11835368270871,6.99999999999998);
#16=CONICAL_SURFACE('',#329,7.11835368270871,6.99999999999998);
#17=CONICAL_SURFACE('',#330,7.11835368270871,6.99999999999998);
#18=CONICAL_SURFACE('',#339,9.15,76.2184027643464);
#19=CONICAL_SURFACE('',#341,12.9,60.);
#20=CONICAL_SURFACE('',#345,12.9,60.);
#21=CONICAL_SURFACE('',#349,10.435,14.9759845147567);
#22=PLANE('',#312);
#23=PLANE('',#315);
#24=PLANE('',#318);
#25=PLANE('',#322);
#26=PLANE('',#326);
#27=PLANE('',#333);
#28=PLANE('',#347);
#29=PLANE('',#350);
#30=TOROIDAL_SURFACE('',#311,8.,2.8);
#31=TOROIDAL_SURFACE('',#335,8.1,1.6);
#32=FACE_BOUND('',#81,.T.);
#33=FACE_BOUND('',#83,.T.);
#34=FACE_BOUND('',#85,.T.);
#35=FACE_BOUND('',#87,.T.);
#36=FACE_BOUND('',#89,.T.);
#37=FACE_BOUND('',#91,.T.);
#38=FACE_BOUND('',#93,.T.);
#39=FACE_BOUND('',#95,.T.);
#40=FACE_BOUND('',#97,.T.);
#41=FACE_BOUND('',#99,.T.);
#42=FACE_BOUND('',#101,.T.);
#43=FACE_BOUND('',#103,.T.);
#44=FACE_BOUND('',#105,.T.);
#45=FACE_BOUND('',#107,.T.);
#46=FACE_BOUND('',#109,.T.);
#47=FACE_BOUND('',#111,.T.);
#48=FACE_BOUND('',#113,.T.);
#49=FACE_BOUND('',#115,.T.);
#50=FACE_BOUND('',#117,.T.);
#51=FACE_BOUND('',#119,.T.);
#52=FACE_BOUND('',#121,.T.);
#53=FACE_BOUND('',#123,.T.);
#54=FACE_BOUND('',#125,.T.);
#55=FACE_BOUND('',#127,.T.);
#56=FACE_OUTER_BOUND('',#80,.T.);
#57=FACE_OUTER_BOUND('',#82,.T.);
#58=FACE_OUTER_BOUND('',#84,.T.);
#59=FACE_OUTER_BOUND('',#86,.T.);
#60=FACE_OUTER_BOUND('',#88,.T.);
#61=FACE_OUTER_BOUND('',#90,.T.);
#62=FACE_OUTER_BOUND('',#92,.T.);
#63=FACE_OUTER_BOUND('',#94,.T.);
#64=FACE_OUTER_BOUND('',#96,.T.);
#65=FACE_OUTER_BOUND('',#98,.T.);
#66=FACE_OUTER_BOUND('',#100,.T.);
#67=FACE_OUTER_BOUND('',#102,.T.);
#68=FACE_OUTER_BOUND('',#104,.T.);
#69=FACE_OUTER_BOUND('',#106,.T.);
#70=FACE_OUTER_BOUND('',#108,.T.);
#71=FACE_OUTER_BOUND('',#110,.T.);
#72=FACE_OUTER_BOUND('',#112,.T.);
#73=FACE_OUTER_BOUND('',#114,.T.);
#74=FACE_OUTER_BOUND('',#116,.T.);
#75=FACE_OUTER_BOUND('',#118,.T.);
#76=FACE_OUTER_BOUND('',#120,.T.);
#77=FACE_OUTER_BOUND('',#122,.T.);
#78=FACE_OUTER_BOUND('',#124,.T.);
#79=FACE_OUTER_BOUND('',#126,.T.);
#80=EDGE_LOOP('',(#200));
#81=EDGE_LOOP('',(#201));
#82=EDGE_LOOP('',(#202));
#83=EDGE_LOOP('',(#203));
#84=EDGE_LOOP('',(#204));
#85=EDGE_LOOP('',(#205));
#86=EDGE_LOOP('',(#206));
#87=EDGE_LOOP('',(#207));
#88=EDGE_LOOP('',(#208));
#89=EDGE_LOOP('',(#209));
#90=EDGE_LOOP('',(#210));
#91=EDGE_LOOP('',(#211));
#92=EDGE_LOOP('',(#212));
#93=EDGE_LOOP('',(#213));
#94=EDGE_LOOP('',(#214));
#95=EDGE_LOOP('',(#215));
#96=EDGE_LOOP('',(#216));
#97=EDGE_LOOP('',(#217));
#98=EDGE_LOOP('',(#218));
#99=EDGE_LOOP('',(#219));
#100=EDGE_LOOP('',(#220));
#101=EDGE_LOOP('',(#221));
#102=EDGE_LOOP('',(#222));
#103=EDGE_LOOP('',(#223));
#104=EDGE_LOOP('',(#224));
#105=EDGE_LOOP('',(#225));
#106=EDGE_LOOP('',(#226));
#107=EDGE_LOOP('',(#227));
#108=EDGE_LOOP('',(#228));
#109=EDGE_LOOP('',(#229));
#110=EDGE_LOOP('',(#230));
#111=EDGE_LOOP('',(#231));
#112=EDGE_LOOP('',(#232));
#113=EDGE_LOOP('',(#233));
#114=EDGE_LOOP('',(#234));
#115=EDGE_LOOP('',(#235));
#116=EDGE_LOOP('',(#236));
#117=EDGE_LOOP('',(#237));
#118=EDGE_LOOP('',(#238));
#119=EDGE_LOOP('',(#239));
#120=EDGE_LOOP('',(#240));
#121=EDGE_LOOP('',(#241));
#122=EDGE_LOOP('',(#242));
#123=EDGE_LOOP('',(#243));
#124=EDGE_LOOP('',(#244));
#125=EDGE_LOOP('',(#245));
#126=EDGE_LOOP('',(#246));
#127=EDGE_LOOP('',(#247));
#128=CIRCLE('',#306,6.);
#129=CIRCLE('',#307,6.);
#130=CIRCLE('',#309,10.);
#131=CIRCLE('',#310,10.);
#132=CIRCLE('',#313,7.5);
#133=CIRCLE('',#314,6.5);
#134=CIRCLE('',#316,7.48670736541742);
#135=CIRCLE('',#317,6.75);
#136=CIRCLE('',#319,7.5);
#137=CIRCLE('',#320,7.48670736541742);
#138=CIRCLE('',#323,7.48670736541742);
#139=CIRCLE('',#324,6.75);
#140=CIRCLE('',#327,7.48670736541742);
#141=CIRCLE('',#328,6.75);
#142=CIRCLE('',#331,6.75);
#143=CIRCLE('',#334,5.);
#144=CIRCLE('',#336,6.5);
#145=CIRCLE('',#337,7.71884555552376);
#146=CIRCLE('',#340,11.8);
#147=CIRCLE('',#342,14.);
#148=CIRCLE('',#344,14.);
#149=CIRCLE('',#346,11.8);
#150=CIRCLE('',#348,10.97);
#151=CIRCLE('',#351,5.);
#152=VERTEX_POINT('',#453);
#153=VERTEX_POINT('',#455);
#154=VERTEX_POINT('',#458);
#155=VERTEX_POINT('',#460);
#156=VERTEX_POINT('',#464);
#157=VERTEX_POINT('',#466);
#158=VERTEX_POINT('',#469);
#159=VERTEX_POINT('',#471);
#160=VERTEX_POINT('',#474);
#161=VERTEX_POINT('',#476);
#162=VERTEX_POINT('',#480);
#163=VERTEX_POINT('',#482);
#164=VERTEX_POINT('',#486);
#165=VERTEX_POINT('',#488);
#166=VERTEX_POINT('',#492);
#167=VERTEX_POINT('',#496);
#168=VERTEX_POINT('',#499);
#169=VERTEX_POINT('',#501);
#170=VERTEX_POINT('',#505);
#171=VERTEX_POINT('',#508);
#172=VERTEX_POINT('',#511);
#173=VERTEX_POINT('',#514);
#174=VERTEX_POINT('',#517);
#175=VERTEX_POINT('',#521);
#176=EDGE_CURVE('',#152,#152,#128,.T.);
#177=EDGE_CURVE('',#153,#153,#129,.T.);
#178=EDGE_CURVE('',#154,#154,#130,.T.);
#179=EDGE_CURVE('',#155,#155,#131,.T.);
#180=EDGE_CURVE('',#156,#156,#132,.T.);
#181=EDGE_CURVE('',#157,#157,#133,.T.);
#182=EDGE_CURVE('',#158,#158,#134,.T.);
#183=EDGE_CURVE('',#159,#159,#135,.T.);
#184=EDGE_CURVE('',#160,#160,#136,.T.);
#185=EDGE_CURVE('',#161,#161,#137,.T.);
#186=EDGE_CURVE('',#162,#162,#138,.T.);
#187=EDGE_CURVE('',#163,#163,#139,.T.);
#188=EDGE_CURVE('',#164,#164,#140,.T.);
#189=EDGE_CURVE('',#165,#165,#141,.T.);
#190=EDGE_CURVE('',#166,#166,#142,.T.);
#191=EDGE_CURVE('',#167,#167,#143,.T.);
#192=EDGE_CURVE('',#168,#168,#144,.T.);
#193=EDGE_CURVE('',#169,#169,#145,.T.);
#194=EDGE_CURVE('',#170,#170,#146,.T.);
#195=EDGE_CURVE('',#171,#171,#147,.T.);
#196=EDGE_CURVE('',#172,#172,#148,.T.);
#197=EDGE_CURVE('',#173,#173,#149,.T.);
#198=EDGE_CURVE('',#174,#174,#150,.T.);
#199=EDGE_CURVE('',#175,#175,#151,.T.);
#200=ORIENTED_EDGE('',*,*,#176,.F.);
#201=ORIENTED_EDGE('',*,*,#177,.F.);
#202=ORIENTED_EDGE('',*,*,#178,.T.);
#203=ORIENTED_EDGE('',*,*,#179,.F.);
#204=ORIENTED_EDGE('',*,*,#178,.F.);
#205=ORIENTED_EDGE('',*,*,#176,.T.);
#206=ORIENTED_EDGE('',*,*,#180,.F.);
#207=ORIENTED_EDGE('',*,*,#181,.F.);
#208=ORIENTED_EDGE('',*,*,#182,.T.);
#209=ORIENTED_EDGE('',*,*,#183,.F.);
#210=ORIENTED_EDGE('',*,*,#184,.F.);
#211=ORIENTED_EDGE('',*,*,#185,.T.);
#212=ORIENTED_EDGE('',*,*,#183,.T.);
#213=ORIENTED_EDGE('',*,*,#185,.F.);
#214=ORIENTED_EDGE('',*,*,#186,.T.);
#215=ORIENTED_EDGE('',*,*,#187,.F.);
#216=ORIENTED_EDGE('',*,*,#187,.T.);
#217=ORIENTED_EDGE('',*,*,#182,.F.);
#218=ORIENTED_EDGE('',*,*,#188,.T.);
#219=ORIENTED_EDGE('',*,*,#189,.F.);
#220=ORIENTED_EDGE('',*,*,#189,.T.);
#221=ORIENTED_EDGE('',*,*,#186,.F.);
#222=ORIENTED_EDGE('',*,*,#190,.F.);
#223=ORIENTED_EDGE('',*,*,#188,.F.);
#224=ORIENTED_EDGE('',*,*,#184,.T.);
#225=ORIENTED_EDGE('',*,*,#180,.T.);
#226=ORIENTED_EDGE('',*,*,#190,.T.);
#227=ORIENTED_EDGE('',*,*,#191,.F.);
#228=ORIENTED_EDGE('',*,*,#192,.T.);
#229=ORIENTED_EDGE('',*,*,#193,.T.);
#230=ORIENTED_EDGE('',*,*,#181,.T.);
#231=ORIENTED_EDGE('',*,*,#192,.F.);
#232=ORIENTED_EDGE('',*,*,#194,.F.);
#233=ORIENTED_EDGE('',*,*,#193,.F.);
#234=ORIENTED_EDGE('',*,*,#194,.T.);
#235=ORIENTED_EDGE('',*,*,#195,.F.);
#236=ORIENTED_EDGE('',*,*,#195,.T.);
#237=ORIENTED_EDGE('',*,*,#196,.F.);
#238=ORIENTED_EDGE('',*,*,#196,.T.);
#239=ORIENTED_EDGE('',*,*,#197,.F.);
#240=ORIENTED_EDGE('',*,*,#197,.T.);
#241=ORIENTED_EDGE('',*,*,#198,.F.);
#242=ORIENTED_EDGE('',*,*,#179,.T.);
#243=ORIENTED_EDGE('',*,*,#198,.T.);
#244=ORIENTED_EDGE('',*,*,#177,.T.);
#245=ORIENTED_EDGE('',*,*,#199,.F.);
#246=ORIENTED_EDGE('',*,*,#191,.T.);
#247=ORIENTED_EDGE('',*,*,#199,.T.);
#248=CYLINDRICAL_SURFACE('',#305,6.);
#249=CYLINDRICAL_SURFACE('',#308,10.);
#250=CYLINDRICAL_SURFACE('',#332,7.5);
#251=CYLINDRICAL_SURFACE('',#338,6.5);
#252=CYLINDRICAL_SURFACE('',#343,14.);
#253=CYLINDRICAL_SURFACE('',#352,5.);
#254=STYLED_ITEM('',(#546),#279);
#255=STYLED_ITEM('',(#546),#280);
#256=STYLED_ITEM('',(#546),#281);
#257=STYLED_ITEM('',(#545),#282);
#258=STYLED_ITEM('',(#545),#283);
#259=STYLED_ITEM('',(#545),#284);
#260=STYLED_ITEM('',(#545),#285);
#261=STYLED_ITEM('',(#545),#286);
#262=STYLED_ITEM('',(#545),#287);
#263=STYLED_ITEM('',(#545),#288);
#264=STYLED_ITEM('',(#545),#289);
#265=STYLED_ITEM('',(#545),#290);
#266=STYLED_ITEM('',(#545),#291);
#267=STYLED_ITEM('',(#545),#292);
#268=STYLED_ITEM('',(#545),#293);
#269=STYLED_ITEM('',(#545),#294);
#270=STYLED_ITEM('',(#545),#295);
#271=STYLED_ITEM('',(#545),#296);
#272=STYLED_ITEM('',(#545),#297);
#273=STYLED_ITEM('',(#545),#298);
#274=STYLED_ITEM('',(#545),#299);
#275=STYLED_ITEM('',(#545),#300);
#276=STYLED_ITEM('',(#545),#301);
#277=STYLED_ITEM('',(#545),#302);
#278=STYLED_ITEM('',(#545),#13);
#279=ADVANCED_FACE('',(#56,#32),#248,.F.);
#280=ADVANCED_FACE('',(#57,#33),#249,.T.);
#281=ADVANCED_FACE('',(#58,#34),#30,.T.);
#282=ADVANCED_FACE('',(#59,#35),#22,.T.);
#283=ADVANCED_FACE('',(#60,#36),#23,.F.);
#284=ADVANCED_FACE('',(#61,#37),#24,.F.);
#285=ADVANCED_FACE('',(#62,#38),#14,.T.);
#286=ADVANCED_FACE('',(#63,#39),#25,.F.);
#287=ADVANCED_FACE('',(#64,#40),#15,.T.);
#288=ADVANCED_FACE('',(#65,#41),#26,.F.);
#289=ADVANCED_FACE('',(#66,#42),#16,.T.);
#290=ADVANCED_FACE('',(#67,#43),#17,.T.);
#291=ADVANCED_FACE('',(#68,#44),#250,.T.);
#292=ADVANCED_FACE('',(#69,#45),#27,.T.);
#293=ADVANCED_FACE('',(#70,#46),#31,.F.);
#294=ADVANCED_FACE('',(#71,#47),#251,.T.);
#295=ADVANCED_FACE('',(#72,#48),#18,.T.);
#296=ADVANCED_FACE('',(#73,#49),#19,.T.);
#297=ADVANCED_FACE('',(#74,#50),#252,.T.);
#298=ADVANCED_FACE('',(#75,#51),#20,.T.);
#299=ADVANCED_FACE('',(#76,#52),#28,.T.);
#300=ADVANCED_FACE('',(#77,#53),#21,.F.);
#301=ADVANCED_FACE('',(#78,#54),#29,.T.);
#302=ADVANCED_FACE('',(#79,#55),#253,.F.);
#303=CLOSED_SHELL('',(#279,#280,#281,#282,#283,#284,#285,#286,#287,#288,
#289,#290,#291,#292,#293,#294,#295,#296,#297,#298,#299,#300,#301,#302));
#304=AXIS2_PLACEMENT_3D('placement',#451,#353,#354);
#305=AXIS2_PLACEMENT_3D('',#452,#355,#356);
#306=AXIS2_PLACEMENT_3D('',#454,#357,#358);
#307=AXIS2_PLACEMENT_3D('',#456,#359,#360);
#308=AXIS2_PLACEMENT_3D('',#457,#361,#362);
#309=AXIS2_PLACEMENT_3D('',#459,#363,#364);
#310=AXIS2_PLACEMENT_3D('',#461,#365,#366);
#311=AXIS2_PLACEMENT_3D('',#462,#367,#368);
#312=AXIS2_PLACEMENT_3D('',#463,#369,#370);
#313=AXIS2_PLACEMENT_3D('',#465,#371,#372);
#314=AXIS2_PLACEMENT_3D('',#467,#373,#374);
#315=AXIS2_PLACEMENT_3D('',#468,#375,#376);
#316=AXIS2_PLACEMENT_3D('',#470,#377,#378);
#317=AXIS2_PLACEMENT_3D('',#472,#379,#380);
#318=AXIS2_PLACEMENT_3D('',#473,#381,#382);
#319=AXIS2_PLACEMENT_3D('',#475,#383,#384);
#320=AXIS2_PLACEMENT_3D('',#477,#385,#386);
#321=AXIS2_PLACEMENT_3D('',#478,#387,#388);
#322=AXIS2_PLACEMENT_3D('',#479,#389,#390);
#323=AXIS2_PLACEMENT_3D('',#481,#391,#392);
#324=AXIS2_PLACEMENT_3D('',#483,#393,#394);
#325=AXIS2_PLACEMENT_3D('',#484,#395,#396);
#326=AXIS2_PLACEMENT_3D('',#485,#397,#398);
#327=AXIS2_PLACEMENT_3D('',#487,#399,#400);
#328=AXIS2_PLACEMENT_3D('',#489,#401,#402);
#329=AXIS2_PLACEMENT_3D('',#490,#403,#404);
#330=AXIS2_PLACEMENT_3D('',#491,#405,#406);
#331=AXIS2_PLACEMENT_3D('',#493,#407,#408);
#332=AXIS2_PLACEMENT_3D('',#494,#409,#410);
#333=AXIS2_PLACEMENT_3D('',#495,#411,#412);
#334=AXIS2_PLACEMENT_3D('',#497,#413,#414);
#335=AXIS2_PLACEMENT_3D('',#498,#415,#416);
#336=AXIS2_PLACEMENT_3D('',#500,#417,#418);
#337=AXIS2_PLACEMENT_3D('',#502,#419,#420);
#338=AXIS2_PLACEMENT_3D('',#503,#421,#422);
#339=AXIS2_PLACEMENT_3D('',#504,#423,#424);
#340=AXIS2_PLACEMENT_3D('',#506,#425,#426);
#341=AXIS2_PLACEMENT_3D('',#507,#427,#428);
#342=AXIS2_PLACEMENT_3D('',#509,#429,#430);
#343=AXIS2_PLACEMENT_3D('',#510,#431,#432);
#344=AXIS2_PLACEMENT_3D('',#512,#433,#434);
#345=AXIS2_PLACEMENT_3D('',#513,#435,#436);
#346=AXIS2_PLACEMENT_3D('',#515,#437,#438);
#347=AXIS2_PLACEMENT_3D('',#516,#439,#440);
#348=AXIS2_PLACEMENT_3D('',#518,#441,#442);
#349=AXIS2_PLACEMENT_3D('',#519,#443,#444);
#350=AXIS2_PLACEMENT_3D('',#520,#445,#446);
#351=AXIS2_PLACEMENT_3D('',#522,#447,#448);
#352=AXIS2_PLACEMENT_3D('',#523,#449,#450);
#353=DIRECTION('axis',(0.,0.,1.));
#354=DIRECTION('refdir',(1.,0.,0.));
#355=DIRECTION('center_axis',(1.,-6.76614037079071E-81,-3.08148791101958E-33));
#356=DIRECTION('ref_axis',(8.57044446966823E-81,1.,5.85530156527704E-49));
#357=DIRECTION('center_axis',(1.,-6.76614037079071E-81,-3.08148791101958E-33));
#358=DIRECTION('ref_axis',(-3.08148791101958E-33,5.85530156527704E-49,-1.));
#359=DIRECTION('center_axis',(-1.,1.11180332833518E-16,2.95594978618938E-17));
#360=DIRECTION('ref_axis',(5.21001053792883E-17,0.208587301278258,0.978003751396411));
#361=DIRECTION('center_axis',(1.,-6.76614037079071E-81,-3.08148791101958E-33));
#362=DIRECTION('ref_axis',(8.57044446966823E-81,1.,5.85530156527704E-49));
#363=DIRECTION('center_axis',(1.,-6.76614037079071E-81,-3.08148791101958E-33));
#364=DIRECTION('ref_axis',(-3.08148791101958E-33,5.85530156527704E-49,-1.));
#365=DIRECTION('center_axis',(1.,-6.76614037079071E-81,-3.08148791101958E-33));
#366=DIRECTION('ref_axis',(8.57044446966823E-81,1.,5.85530156527704E-49));
#367=DIRECTION('center_axis',(1.,-6.76614037079071E-81,-3.08148791101958E-33));
#368=DIRECTION('ref_axis',(0.,0.,-1.));
#369=DIRECTION('center_axis',(-1.,0.,0.));
#370=DIRECTION('ref_axis',(0.,0.,1.));
#371=DIRECTION('center_axis',(1.,0.,0.));
#372=DIRECTION('ref_axis',(0.,0.,-1.));
#373=DIRECTION('center_axis',(-1.,1.11180332833518E-16,2.95594978618938E-17));
#374=DIRECTION('ref_axis',(5.21001053792883E-17,0.208587301278258,0.978003751396411));
#375=DIRECTION('center_axis',(1.,0.,0.));
#376=DIRECTION('ref_axis',(0.,0.,-1.));
#377=DIRECTION('center_axis',(-1.,0.,0.));
#378=DIRECTION('ref_axis',(0.,0.,1.));
#379=DIRECTION('center_axis',(-1.,0.,0.));
#380=DIRECTION('ref_axis',(0.,0.,1.));
#381=DIRECTION('center_axis',(-1.,0.,0.));
#382=DIRECTION('ref_axis',(0.,0.,1.));
#383=DIRECTION('center_axis',(-1.,0.,0.));
#384=DIRECTION('ref_axis',(0.,1.,0.));
#385=DIRECTION('center_axis',(-1.,0.,0.));
#386=DIRECTION('ref_axis',(0.,0.,1.));
#387=DIRECTION('center_axis',(-1.,0.,0.));
#388=DIRECTION('ref_axis',(0.,1.,0.));
#389=DIRECTION('center_axis',(1.,0.,0.));
#390=DIRECTION('ref_axis',(0.,0.,-1.));
#391=DIRECTION('center_axis',(-1.,0.,0.));
#392=DIRECTION('ref_axis',(0.,0.,1.));
#393=DIRECTION('center_axis',(-1.,0.,0.));
#394=DIRECTION('ref_axis',(0.,0.,1.));
#395=DIRECTION('center_axis',(-1.,0.,0.));
#396=DIRECTION('ref_axis',(0.,1.,0.));
#397=DIRECTION('center_axis',(1.,0.,0.));
#398=DIRECTION('ref_axis',(0.,0.,-1.));
#399=DIRECTION('center_axis',(-1.,0.,0.));
#400=DIRECTION('ref_axis',(0.,0.,1.));
#401=DIRECTION('center_axis',(-1.,0.,0.));
#402=DIRECTION('ref_axis',(0.,0.,1.));
#403=DIRECTION('center_axis',(-1.,0.,0.));
#404=DIRECTION('ref_axis',(0.,1.,0.));
#405=DIRECTION('center_axis',(-1.,0.,0.));
#406=DIRECTION('ref_axis',(0.,1.,0.));
#407=DIRECTION('center_axis',(1.,0.,0.));
#408=DIRECTION('ref_axis',(0.,1.,0.));
#409=DIRECTION('center_axis',(1.,0.,0.));
#410=DIRECTION('ref_axis',(0.,1.,0.));
#411=DIRECTION('center_axis',(1.,0.,0.));
#412=DIRECTION('ref_axis',(0.,0.,-1.));
#413=DIRECTION('center_axis',(1.,0.,0.));
#414=DIRECTION('ref_axis',(0.,0.,-1.));
#415=DIRECTION('center_axis',(-1.,1.11180332833518E-16,2.95594978618938E-17));
#416=DIRECTION('ref_axis',(0.,0.208587301278258,0.978003751396411));
#417=DIRECTION('center_axis',(-1.,1.11180332833518E-16,2.95594978618938E-17));
#418=DIRECTION('ref_axis',(-1.02569046706529E-16,-0.978003751396411,0.208587301278257));
#419=DIRECTION('center_axis',(1.,-1.11180332833518E-16,-2.95594978618938E-17));
#420=DIRECTION('ref_axis',(-1.02569046706529E-16,-0.978003751396411,0.208587301278258));
#421=DIRECTION('center_axis',(-1.,1.11180332833518E-16,2.95594978618938E-17));
#422=DIRECTION('ref_axis',(1.02569046706529E-16,0.978003751396411,-0.208587301278258));
#423=DIRECTION('center_axis',(-1.,1.11180332833518E-16,2.95594978618938E-17));
#424=DIRECTION('ref_axis',(1.02569046706529E-16,0.978003751396411,-0.208587301278258));
#425=DIRECTION('center_axis',(-1.,1.11180332833518E-16,2.95594978618938E-17));
#426=DIRECTION('ref_axis',(5.21001053792883E-17,0.208587301278258,0.978003751396411));
#427=DIRECTION('center_axis',(-1.,1.11180332833518E-16,2.95594978618938E-17));
#428=DIRECTION('ref_axis',(1.02569046706529E-16,0.978003751396411,-0.208587301278258));
#429=DIRECTION('center_axis',(-1.,1.11180332833518E-16,2.95594978618938E-17));
#430=DIRECTION('ref_axis',(5.21001053792883E-17,0.208587301278258,0.978003751396411));
#431=DIRECTION('center_axis',(-1.,1.11180332833518E-16,2.95594978618938E-17));
#432=DIRECTION('ref_axis',(1.02569046706529E-16,0.978003751396411,-0.208587301278258));
#433=DIRECTION('center_axis',(-1.,1.11180332833518E-16,2.95594978618938E-17));
#434=DIRECTION('ref_axis',(5.21001053792883E-17,0.208587301278258,0.978003751396411));
#435=DIRECTION('center_axis',(1.,-1.11180332833518E-16,-2.95594978618938E-17));
#436=DIRECTION('ref_axis',(1.02569046706529E-16,0.978003751396411,-0.208587301278258));
#437=DIRECTION('center_axis',(-1.,1.11180332833518E-16,2.95594978618938E-17));
#438=DIRECTION('ref_axis',(5.21001053792883E-17,0.208587301278258,0.978003751396411));
#439=DIRECTION('center_axis',(-1.,1.11180332833518E-16,2.95594978618938E-17));
#440=DIRECTION('ref_axis',(0.,0.208587301278258,0.978003751396411));
#441=DIRECTION('center_axis',(-1.,1.11180332833518E-16,2.95594978618938E-17));
#442=DIRECTION('ref_axis',(5.21001053792883E-17,0.208587301278258,0.978003751396411));
#443=DIRECTION('center_axis',(-1.,1.11180332833518E-16,2.95594978618938E-17));
#444=DIRECTION('ref_axis',(1.02569046706529E-16,0.978003751396411,-0.208587301278258));
#445=DIRECTION('center_axis',(-1.,1.11180332833518E-16,2.95594978618938E-17));
#446=DIRECTION('ref_axis',(0.,0.208587301278258,0.978003751396411));
#447=DIRECTION('center_axis',(-1.,1.11180332833518E-16,2.95594978618938E-17));
#448=DIRECTION('ref_axis',(5.21001053792883E-17,0.208587301278258,0.978003751396411));
#449=DIRECTION('center_axis',(-1.,1.11180332833518E-16,2.95594978618938E-17));
#450=DIRECTION('ref_axis',(1.02569046706529E-16,0.978003751396411,-0.208587301278258));
#451=CARTESIAN_POINT('',(0.,0.,0.));
#452=CARTESIAN_POINT('Origin',(-51.0797958971133,7.014553618303E-16,4.13832970066512E-16));
#453=CARTESIAN_POINT('',(-53.1595917942266,6.,4.13832970066512E-16));
#454=CARTESIAN_POINT('Origin',(-53.1595917942266,7.014553618303E-16,4.13832970066512E-16));
#455=CARTESIAN_POINT('',(-52.0000000000001,5.8680225083785,-1.25152380766955));
#456=CARTESIAN_POINT('Origin',(-52.0000000000001,3.43826989760492E-14,5.02511463652196E-16));
#457=CARTESIAN_POINT('Origin',(-51.0797958971133,7.014553618303E-16,4.13832970066512E-16));
#458=CARTESIAN_POINT('',(-53.1595917942266,10.,4.13832970066512E-16));
#459=CARTESIAN_POINT('Origin',(-53.1595917942266,7.014553618303E-16,4.13832970066512E-16));
#460=CARTESIAN_POINT('',(-52.373831775701,-10.,-8.10813829080841E-16));
#461=CARTESIAN_POINT('Origin',(-52.373831775701,7.014553618303E-16,4.13832970066512E-16));
#462=CARTESIAN_POINT('Origin',(-51.2,7.014553618303E-16,4.13832970066512E-16));
#463=CARTESIAN_POINT('Origin',(-35.,7.5,0.));
#464=CARTESIAN_POINT('',(-35.,7.5,0.));
#465=CARTESIAN_POINT('Origin',(-35.,0.,0.));
#466=CARTESIAN_POINT('',(-35.0000000000001,6.35702438407671,-1.35581745830867));
#467=CARTESIAN_POINT('Origin',(-35.0000000000001,3.24926333178794E-14,4.93038065763132E-31));
#468=CARTESIAN_POINT('Origin',(-18.,9.75,0.));
#469=CARTESIAN_POINT('',(-18.,7.48670736541742,0.));
#470=CARTESIAN_POINT('Origin',(-18.,0.,0.));
#471=CARTESIAN_POINT('',(-18.,6.75,0.));
#472=CARTESIAN_POINT('Origin',(-18.,0.,0.));
#473=CARTESIAN_POINT('Origin',(-24.,7.48670736541742,0.));
#474=CARTESIAN_POINT('',(-24.,-7.5,9.18485099360515E-16));
#475=CARTESIAN_POINT('Origin',(-24.,0.,0.));
#476=CARTESIAN_POINT('',(-24.,7.48670736541742,0.));
#477=CARTESIAN_POINT('Origin',(-24.,0.,0.));
#478=CARTESIAN_POINT('Origin',(-21.,0.,0.));
#479=CARTESIAN_POINT('Origin',(-12.,9.75,0.));
#480=CARTESIAN_POINT('',(-12.,7.48670736541742,0.));
#481=CARTESIAN_POINT('Origin',(-12.,0.,0.));
#482=CARTESIAN_POINT('',(-12.,6.75,0.));
#483=CARTESIAN_POINT('Origin',(-12.,0.,0.));
#484=CARTESIAN_POINT('Origin',(-15.,0.,0.));
#485=CARTESIAN_POINT('Origin',(-6.,9.75,0.));
#486=CARTESIAN_POINT('',(-6.,7.48670736541742,0.));
#487=CARTESIAN_POINT('Origin',(-6.,0.,0.));
#488=CARTESIAN_POINT('',(-6.,6.75,0.));
#489=CARTESIAN_POINT('Origin',(-6.,0.,0.));
#490=CARTESIAN_POINT('Origin',(-9.,0.,0.));
#491=CARTESIAN_POINT('Origin',(-3.,0.,0.));
#492=CARTESIAN_POINT('',(0.,6.75,0.));
#493=CARTESIAN_POINT('Origin',(-1.11022302462516E-15,0.,0.));
#494=CARTESIAN_POINT('Origin',(-17.5,0.,0.));
#495=CARTESIAN_POINT('Origin',(-9.18485099360515E-16,5.,0.));
#496=CARTESIAN_POINT('',(-9.18485099360515E-16,5.,0.));
#497=CARTESIAN_POINT('Origin',(0.,0.,0.));
#498=CARTESIAN_POINT('Origin',(-41.4450247668357,3.32091933165765E-14,1.90511695815132E-16));
#499=CARTESIAN_POINT('',(-41.4450247668357,6.35702438407671,-1.35581745830867));
#500=CARTESIAN_POINT('Origin',(-41.4450247668357,3.32091933165765E-14,1.90511695815132E-16));
#501=CARTESIAN_POINT('',(-42.9989621173927,7.54905990975179,-1.61005316341037));
#502=CARTESIAN_POINT('Origin',(-42.9989621173927,3.36284288950423E-14,1.39206181048757E-15));
#503=CARTESIAN_POINT('Origin',(-38.8500000000001,3.29206775992885E-14,1.13804066768292E-16));
#504=CARTESIAN_POINT('Origin',(-43.3500000000001,3.34209890970393E-14,2.46821807146814E-16));
#505=CARTESIAN_POINT('',(-44.0000000000001,11.5404442664777,-2.46133015508344));
#506=CARTESIAN_POINT('Origin',(-44.0000000000001,3.34932563133811E-14,2.66035480757045E-16));
#507=CARTESIAN_POINT('Origin',(-44.6350852961087,3.35638653079801E-14,2.84808283209487E-16));
#508=CARTESIAN_POINT('',(-45.2701705922173,13.6920525195498,-2.92022221789561));
#509=CARTESIAN_POINT('Origin',(-45.2701705922173,3.36344743025791E-14,3.03581085661929E-16));
#510=CARTESIAN_POINT('Origin',(-50.0000000000001,3.41603383103822E-14,4.43392467928408E-16));
#511=CARTESIAN_POINT('',(-54.7298294077829,13.6920525195498,-2.92022221789561));
#512=CARTESIAN_POINT('Origin',(-54.7298294077829,3.46862023181853E-14,5.83203850194887E-16));
#513=CARTESIAN_POINT('Origin',(-55.3649147038915,3.47568113127843E-14,6.01976652647329E-16));
#514=CARTESIAN_POINT('',(-56.0000000000001,11.5404442664777,-2.46133015508344));
#515=CARTESIAN_POINT('Origin',(-56.0000000000001,3.48274203073833E-14,6.20749455099771E-16));
#516=CARTESIAN_POINT('Origin',(-56.0000000000001,10.7287011528187,-2.28820269502249));
#517=CARTESIAN_POINT('',(-56.0000000000001,10.7287011528187,-2.28820269502249));
#518=CARTESIAN_POINT('Origin',(-56.0000000000001,3.48274203073833E-14,6.20749455099771E-16));
#519=CARTESIAN_POINT('Origin',(-54.0000000000001,3.46050596417163E-14,5.61630459375983E-16));
#520=CARTESIAN_POINT('Origin',(-52.0000000000001,4.89001875698209,-1.04293650639129));
#521=CARTESIAN_POINT('',(-52.0000000000001,4.89001875698209,-1.04293650639129));
#522=CARTESIAN_POINT('Origin',(-52.0000000000001,3.43826989760492E-14,5.02511463652196E-16));
#523=CARTESIAN_POINT('Origin',(-43.5000000000001,3.34376661469643E-14,2.51255731826098E-16));
#524=UNCERTAINTY_MEASURE_WITH_UNIT(LENGTH_MEASURE(0.01),#528,
'DISTANCE_ACCURACY_VALUE',
'Maximum model space distance between geometric entities at asserted c
onnectivities');
#525=UNCERTAINTY_MEASURE_WITH_UNIT(LENGTH_MEASURE(1.E-6),#528,
'DISTANCE_ACCURACY_VALUE',
'Maximum model space distance between geometric entities at asserted c
onnectivities');
#526=(
GEOMETRIC_REPRESENTATION_CONTEXT(3)
GLOBAL_UNCERTAINTY_ASSIGNED_CONTEXT((#524))
GLOBAL_UNIT_ASSIGNED_CONTEXT((#528,#531,#529))
REPRESENTATION_CONTEXT('','3D')
);
#527=(
GEOMETRIC_REPRESENTATION_CONTEXT(3)
GLOBAL_UNCERTAINTY_ASSIGNED_CONTEXT((#525))
GLOBAL_UNIT_ASSIGNED_CONTEXT((#528,#531,#529))
REPRESENTATION_CONTEXT('','3D')
);
#528=(
LENGTH_UNIT()
NAMED_UNIT(*)
SI_UNIT(.MILLI.,.METRE.)
);
#529=(
NAMED_UNIT(*)
SI_UNIT($,.STERADIAN.)
SOLID_ANGLE_UNIT()
);
#530=DIMENSIONAL_EXPONENTS(0.,0.,0.,0.,0.,0.,0.);
#531=(
CONVERSION_BASED_UNIT('degree',#533)
NAMED_UNIT(#530)
PLANE_ANGLE_UNIT()
);
#532=(
NAMED_UNIT(*)
PLANE_ANGLE_UNIT()
SI_UNIT($,.RADIAN.)
);
#533=PLANE_ANGLE_MEASURE_WITH_UNIT(PLANE_ANGLE_MEASURE(0.01745329252),#532);
#534=SHAPE_DEFINITION_REPRESENTATION(#535,#536);
#535=PRODUCT_DEFINITION_SHAPE('',$,#538);
#536=SHAPE_REPRESENTATION('',(#304),#526);
#537=DESIGN_CONTEXT('part definition',#542,'design');
#538=PRODUCT_DEFINITION('26010010000','26010010000',#539,#537);
#539=PRODUCT_DEFINITION_FORMATION('',$,#544);
#540=PRODUCT_RELATED_PRODUCT_CATEGORY('26010010000','26010010000',(#544));
#541=APPLICATION_PROTOCOL_DEFINITION('international standard',
'ap203_configuration_controlled_3d_design_of_mechanical_parts_and_asse
mblies_mim_lf',2004,#542);
#542=APPLICATION_CONTEXT(
'Configuration Controlled 3D Design of Mechanical Parts and Assemblies');
#543=MECHANICAL_CONTEXT('part definition',#542,'mechanical');
#544=PRODUCT('26010010000','26010010000',$,(#543));
#545=PRESENTATION_STYLE_ASSIGNMENT((#547));
#546=PRESENTATION_STYLE_ASSIGNMENT((#548));
#547=SURFACE_STYLE_USAGE(.BOTH.,#549);
#548=SURFACE_STYLE_USAGE(.BOTH.,#550);
#549=SURFACE_SIDE_STYLE($,(#551));
#550=SURFACE_SIDE_STYLE($,(#552));
#551=SURFACE_STYLE_FILL_AREA(#553);
#552=SURFACE_STYLE_FILL_AREA(#554);
#553=FILL_AREA_STYLE($,(#555));
#554=FILL_AREA_STYLE($,(#556));
#555=FILL_AREA_STYLE_COLOUR($,#557);
#556=FILL_AREA_STYLE_COLOUR($,#558);
#557=COLOUR_RGB('',0.745098039215686,0.737254901960784,0.729411764705882);
#558=COLOUR_RGB('',0.,0.6,0.8);
ENDSEC;
END-ISO-10303-21;
