ISO-10303-21;
HEADER;
/* Generated by software containing ST-Developer
 * from STEP Tools, Inc. (www.steptools.com) 
 */

FILE_DESCRIPTION(
/* description */ (''),
/* implementation_level */ '2;1');

FILE_NAME(
/* name */ 
'C:\\Vault_Workspace\\DATA\\Katalog Bupospol\\2 Potrubn\X\ED d\X\EDly\\
2.6 Hadicov\X\E9 n\X\E1stavce\\26010\\26010\\26010015000.stp',
/* time_stamp */ '2016-03-08T11:16:30+01:00',
/* author */ ('Struska'),
/* organization */ ('BUPOSPOL'),
/* preprocessor_version */ 'ST-DEVELOPER v15.6',
/* originating_system */ 'Autodesk Inventor 2015',
/* authorisation */ '');

FILE_SCHEMA (('CONFIG_CONTROL_DESIGN'));
ENDSEC;

DATA;
#10=MECHANICAL_DESIGN_GEOMETRIC_PRESENTATION_REPRESENTATION('',(#298,#296,
#300,#297,#299,#278,#280,#290,#279,#292,#288,#291,#281,#282,#293,#274,#287,
#283,#284,#285,#286,#294,#275,#295,#276,#289,#277),#569);
#11=SHAPE_REPRESENTATION_RELATIONSHIP('SRR','None',#578,#12);
#12=ADVANCED_BREP_SHAPE_REPRESENTATION($,(#13),#568);
#13=MANIFOLD_SOLID_BREP('T\X2\011B\X0\leso1',#327);
#14=CONICAL_SURFACE('',#345,10.0408174517712,10.);
#15=CONICAL_SURFACE('',#349,10.0408174517712,10.);
#16=CONICAL_SURFACE('',#353,10.0408174517712,10.);
#17=CONICAL_SURFACE('',#357,10.0408174517712,10.);
#18=CONICAL_SURFACE('',#358,10.0408174517712,10.);
#19=CONICAL_SURFACE('',#367,12.15,76.2184027643464);
#20=CONICAL_SURFACE('',#369,15.9,60.);
#21=CONICAL_SURFACE('',#373,15.9,60.);
#22=CONICAL_SURFACE('',#377,13.425,14.7083038996827);
#23=PLANE('',#336);
#24=PLANE('',#339);
#25=PLANE('',#342);
#26=PLANE('',#346);
#27=PLANE('',#350);
#28=PLANE('',#354);
#29=PLANE('',#361);
#30=PLANE('',#375);
#31=PLANE('',#378);
#32=TOROIDAL_SURFACE('',#335,11.,2.8);
#33=TOROIDAL_SURFACE('',#363,11.1,1.6);
#34=FACE_BOUND('',#87,.T.);
#35=FACE_BOUND('',#89,.T.);
#36=FACE_BOUND('',#91,.T.);
#37=FACE_BOUND('',#93,.T.);
#38=FACE_BOUND('',#95,.T.);
#39=FACE_BOUND('',#97,.T.);
#40=FACE_BOUND('',#99,.T.);
#41=FACE_BOUND('',#101,.T.);
#42=FACE_BOUND('',#103,.T.);
#43=FACE_BOUND('',#105,.T.);
#44=FACE_BOUND('',#107,.T.);
#45=FACE_BOUND('',#109,.T.);
#46=FACE_BOUND('',#111,.T.);
#47=FACE_BOUND('',#113,.T.);
#48=FACE_BOUND('',#115,.T.);
#49=FACE_BOUND('',#117,.T.);
#50=FACE_BOUND('',#119,.T.);
#51=FACE_BOUND('',#121,.T.);
#52=FACE_BOUND('',#123,.T.);
#53=FACE_BOUND('',#125,.T.);
#54=FACE_BOUND('',#127,.T.);
#55=FACE_BOUND('',#129,.T.);
#56=FACE_BOUND('',#131,.T.);
#57=FACE_BOUND('',#133,.T.);
#58=FACE_BOUND('',#135,.T.);
#59=FACE_BOUND('',#137,.T.);
#60=FACE_OUTER_BOUND('',#86,.T.);
#61=FACE_OUTER_BOUND('',#88,.T.);
#62=FACE_OUTER_BOUND('',#90,.T.);
#63=FACE_OUTER_BOUND('',#92,.T.);
#64=FACE_OUTER_BOUND('',#94,.T.);
#65=FACE_OUTER_BOUND('',#96,.T.);
#66=FACE_OUTER_BOUND('',#98,.T.);
#67=FACE_OUTER_BOUND('',#100,.T.);
#68=FACE_OUTER_BOUND('',#102,.T.);
#69=FACE_OUTER_BOUND('',#104,.T.);
#70=FACE_OUTER_BOUND('',#106,.T.);
#71=FACE_OUTER_BOUND('',#108,.T.);
#72=FACE_OUTER_BOUND('',#110,.T.);
#73=FACE_OUTER_BOUND('',#112,.T.);
#74=FACE_OUTER_BOUND('',#114,.T.);
#75=FACE_OUTER_BOUND('',#116,.T.);
#76=FACE_OUTER_BOUND('',#118,.T.);
#77=FACE_OUTER_BOUND('',#120,.T.);
#78=FACE_OUTER_BOUND('',#122,.T.);
#79=FACE_OUTER_BOUND('',#124,.T.);
#80=FACE_OUTER_BOUND('',#126,.T.);
#81=FACE_OUTER_BOUND('',#128,.T.);
#82=FACE_OUTER_BOUND('',#130,.T.);
#83=FACE_OUTER_BOUND('',#132,.T.);
#84=FACE_OUTER_BOUND('',#134,.T.);
#85=FACE_OUTER_BOUND('',#136,.T.);
#86=EDGE_LOOP('',(#216));
#87=EDGE_LOOP('',(#217));
#88=EDGE_LOOP('',(#218));
#89=EDGE_LOOP('',(#219));
#90=EDGE_LOOP('',(#220));
#91=EDGE_LOOP('',(#221));
#92=EDGE_LOOP('',(#222));
#93=EDGE_LOOP('',(#223));
#94=EDGE_LOOP('',(#224));
#95=EDGE_LOOP('',(#225));
#96=EDGE_LOOP('',(#226));
#97=EDGE_LOOP('',(#227));
#98=EDGE_LOOP('',(#228));
#99=EDGE_LOOP('',(#229));
#100=EDGE_LOOP('',(#230));
#101=EDGE_LOOP('',(#231));
#102=EDGE_LOOP('',(#232));
#103=EDGE_LOOP('',(#233));
#104=EDGE_LOOP('',(#234));
#105=EDGE_LOOP('',(#235));
#106=EDGE_LOOP('',(#236));
#107=EDGE_LOOP('',(#237));
#108=EDGE_LOOP('',(#238));
#109=EDGE_LOOP('',(#239));
#110=EDGE_LOOP('',(#240));
#111=EDGE_LOOP('',(#241));
#112=EDGE_LOOP('',(#242));
#113=EDGE_LOOP('',(#243));
#114=EDGE_LOOP('',(#244));
#115=EDGE_LOOP('',(#245));
#116=EDGE_LOOP('',(#246));
#117=EDGE_LOOP('',(#247));
#118=EDGE_LOOP('',(#248));
#119=EDGE_LOOP('',(#249));
#120=EDGE_LOOP('',(#250));
#121=EDGE_LOOP('',(#251));
#122=EDGE_LOOP('',(#252));
#123=EDGE_LOOP('',(#253));
#124=EDGE_LOOP('',(#254));
#125=EDGE_LOOP('',(#255));
#126=EDGE_LOOP('',(#256));
#127=EDGE_LOOP('',(#257));
#128=EDGE_LOOP('',(#258));
#129=EDGE_LOOP('',(#259));
#130=EDGE_LOOP('',(#260));
#131=EDGE_LOOP('',(#261));
#132=EDGE_LOOP('',(#262));
#133=EDGE_LOOP('',(#263));
#134=EDGE_LOOP('',(#264));
#135=EDGE_LOOP('',(#265));
#136=EDGE_LOOP('',(#266));
#137=EDGE_LOOP('',(#267));
#138=CIRCLE('',#330,9.);
#139=CIRCLE('',#331,9.);
#140=CIRCLE('',#333,13.);
#141=CIRCLE('',#334,13.);
#142=CIRCLE('',#337,10.5);
#143=CIRCLE('',#338,9.5);
#144=CIRCLE('',#340,10.4816349035423);
#145=CIRCLE('',#341,9.6);
#146=CIRCLE('',#343,10.5);
#147=CIRCLE('',#344,10.4816349035423);
#148=CIRCLE('',#347,10.4816349035423);
#149=CIRCLE('',#348,9.6);
#150=CIRCLE('',#351,10.4816349035423);
#151=CIRCLE('',#352,9.6);
#152=CIRCLE('',#355,10.4816349035423);
#153=CIRCLE('',#356,9.6);
#154=CIRCLE('',#359,9.6);
#155=CIRCLE('',#362,8.);
#156=CIRCLE('',#364,9.5);
#157=CIRCLE('',#365,10.7188455555238);
#158=CIRCLE('',#368,14.8);
#159=CIRCLE('',#370,17.);
#160=CIRCLE('',#372,17.);
#161=CIRCLE('',#374,14.8);
#162=CIRCLE('',#376,13.95);
#163=CIRCLE('',#379,8.);
#164=VERTEX_POINT('',#489);
#165=VERTEX_POINT('',#491);
#166=VERTEX_POINT('',#494);
#167=VERTEX_POINT('',#496);
#168=VERTEX_POINT('',#500);
#169=VERTEX_POINT('',#502);
#170=VERTEX_POINT('',#505);
#171=VERTEX_POINT('',#507);
#172=VERTEX_POINT('',#510);
#173=VERTEX_POINT('',#512);
#174=VERTEX_POINT('',#516);
#175=VERTEX_POINT('',#518);
#176=VERTEX_POINT('',#522);
#177=VERTEX_POINT('',#524);
#178=VERTEX_POINT('',#528);
#179=VERTEX_POINT('',#530);
#180=VERTEX_POINT('',#534);
#181=VERTEX_POINT('',#538);
#182=VERTEX_POINT('',#541);
#183=VERTEX_POINT('',#543);
#184=VERTEX_POINT('',#547);
#185=VERTEX_POINT('',#550);
#186=VERTEX_POINT('',#553);
#187=VERTEX_POINT('',#556);
#188=VERTEX_POINT('',#559);
#189=VERTEX_POINT('',#563);
#190=EDGE_CURVE('',#164,#164,#138,.T.);
#191=EDGE_CURVE('',#165,#165,#139,.T.);
#192=EDGE_CURVE('',#166,#166,#140,.T.);
#193=EDGE_CURVE('',#167,#167,#141,.T.);
#194=EDGE_CURVE('',#168,#168,#142,.T.);
#195=EDGE_CURVE('',#169,#169,#143,.T.);
#196=EDGE_CURVE('',#170,#170,#144,.T.);
#197=EDGE_CURVE('',#171,#171,#145,.T.);
#198=EDGE_CURVE('',#172,#172,#146,.T.);
#199=EDGE_CURVE('',#173,#173,#147,.T.);
#200=EDGE_CURVE('',#174,#174,#148,.T.);
#201=EDGE_CURVE('',#175,#175,#149,.T.);
#202=EDGE_CURVE('',#176,#176,#150,.T.);
#203=EDGE_CURVE('',#177,#177,#151,.T.);
#204=EDGE_CURVE('',#178,#178,#152,.T.);
#205=EDGE_CURVE('',#179,#179,#153,.T.);
#206=EDGE_CURVE('',#180,#180,#154,.T.);
#207=EDGE_CURVE('',#181,#181,#155,.T.);
#208=EDGE_CURVE('',#182,#182,#156,.T.);
#209=EDGE_CURVE('',#183,#183,#157,.T.);
#210=EDGE_CURVE('',#184,#184,#158,.T.);
#211=EDGE_CURVE('',#185,#185,#159,.T.);
#212=EDGE_CURVE('',#186,#186,#160,.T.);
#213=EDGE_CURVE('',#187,#187,#161,.T.);
#214=EDGE_CURVE('',#188,#188,#162,.T.);
#215=EDGE_CURVE('',#189,#189,#163,.T.);
#216=ORIENTED_EDGE('',*,*,#190,.F.);
#217=ORIENTED_EDGE('',*,*,#191,.F.);
#218=ORIENTED_EDGE('',*,*,#192,.T.);
#219=ORIENTED_EDGE('',*,*,#193,.F.);
#220=ORIENTED_EDGE('',*,*,#192,.F.);
#221=ORIENTED_EDGE('',*,*,#190,.T.);
#222=ORIENTED_EDGE('',*,*,#194,.F.);
#223=ORIENTED_EDGE('',*,*,#195,.F.);
#224=ORIENTED_EDGE('',*,*,#196,.T.);
#225=ORIENTED_EDGE('',*,*,#197,.F.);
#226=ORIENTED_EDGE('',*,*,#198,.F.);
#227=ORIENTED_EDGE('',*,*,#199,.T.);
#228=ORIENTED_EDGE('',*,*,#197,.T.);
#229=ORIENTED_EDGE('',*,*,#199,.F.);
#230=ORIENTED_EDGE('',*,*,#200,.T.);
#231=ORIENTED_EDGE('',*,*,#201,.F.);
#232=ORIENTED_EDGE('',*,*,#201,.T.);
#233=ORIENTED_EDGE('',*,*,#196,.F.);
#234=ORIENTED_EDGE('',*,*,#202,.T.);
#235=ORIENTED_EDGE('',*,*,#203,.F.);
#236=ORIENTED_EDGE('',*,*,#203,.T.);
#237=ORIENTED_EDGE('',*,*,#200,.F.);
#238=ORIENTED_EDGE('',*,*,#204,.T.);
#239=ORIENTED_EDGE('',*,*,#205,.F.);
#240=ORIENTED_EDGE('',*,*,#205,.T.);
#241=ORIENTED_EDGE('',*,*,#202,.F.);
#242=ORIENTED_EDGE('',*,*,#206,.F.);
#243=ORIENTED_EDGE('',*,*,#204,.F.);
#244=ORIENTED_EDGE('',*,*,#198,.T.);
#245=ORIENTED_EDGE('',*,*,#194,.T.);
#246=ORIENTED_EDGE('',*,*,#206,.T.);
#247=ORIENTED_EDGE('',*,*,#207,.F.);
#248=ORIENTED_EDGE('',*,*,#208,.T.);
#249=ORIENTED_EDGE('',*,*,#209,.T.);
#250=ORIENTED_EDGE('',*,*,#195,.T.);
#251=ORIENTED_EDGE('',*,*,#208,.F.);
#252=ORIENTED_EDGE('',*,*,#210,.F.);
#253=ORIENTED_EDGE('',*,*,#209,.F.);
#254=ORIENTED_EDGE('',*,*,#210,.T.);
#255=ORIENTED_EDGE('',*,*,#211,.F.);
#256=ORIENTED_EDGE('',*,*,#211,.T.);
#257=ORIENTED_EDGE('',*,*,#212,.F.);
#258=ORIENTED_EDGE('',*,*,#212,.T.);
#259=ORIENTED_EDGE('',*,*,#213,.F.);
#260=ORIENTED_EDGE('',*,*,#213,.T.);
#261=ORIENTED_EDGE('',*,*,#214,.F.);
#262=ORIENTED_EDGE('',*,*,#193,.T.);
#263=ORIENTED_EDGE('',*,*,#214,.T.);
#264=ORIENTED_EDGE('',*,*,#191,.T.);
#265=ORIENTED_EDGE('',*,*,#215,.F.);
#266=ORIENTED_EDGE('',*,*,#207,.T.);
#267=ORIENTED_EDGE('',*,*,#215,.T.);
#268=CYLINDRICAL_SURFACE('',#329,9.);
#269=CYLINDRICAL_SURFACE('',#332,13.);
#270=CYLINDRICAL_SURFACE('',#360,10.5);
#271=CYLINDRICAL_SURFACE('',#366,9.5);
#272=CYLINDRICAL_SURFACE('',#371,17.);
#273=CYLINDRICAL_SURFACE('',#380,8.);
#274=STYLED_ITEM('',(#588),#301);
#275=STYLED_ITEM('',(#588),#302);
#276=STYLED_ITEM('',(#588),#303);
#277=STYLED_ITEM('',(#587),#304);
#278=STYLED_ITEM('',(#587),#305);
#279=STYLED_ITEM('',(#587),#306);
#280=STYLED_ITEM('',(#587),#307);
#281=STYLED_ITEM('',(#587),#308);
#282=STYLED_ITEM('',(#587),#309);
#283=STYLED_ITEM('',(#587),#310);
#284=STYLED_ITEM('',(#587),#311);
#285=STYLED_ITEM('',(#587),#312);
#286=STYLED_ITEM('',(#587),#313);
#287=STYLED_ITEM('',(#587),#314);
#288=STYLED_ITEM('',(#587),#315);
#289=STYLED_ITEM('',(#587),#316);
#290=STYLED_ITEM('',(#587),#317);
#291=STYLED_ITEM('',(#587),#318);
#292=STYLED_ITEM('',(#587),#319);
#293=STYLED_ITEM('',(#587),#320);
#294=STYLED_ITEM('',(#587),#321);
#295=STYLED_ITEM('',(#587),#322);
#296=STYLED_ITEM('',(#587),#323);
#297=STYLED_ITEM('',(#587),#324);
#298=STYLED_ITEM('',(#587),#325);
#299=STYLED_ITEM('',(#587),#326);
#300=STYLED_ITEM('',(#587),#13);
#301=ADVANCED_FACE('',(#60,#34),#268,.F.);
#302=ADVANCED_FACE('',(#61,#35),#269,.T.);
#303=ADVANCED_FACE('',(#62,#36),#32,.T.);
#304=ADVANCED_FACE('',(#63,#37),#23,.T.);
#305=ADVANCED_FACE('',(#64,#38),#24,.F.);
#306=ADVANCED_FACE('',(#65,#39),#25,.F.);
#307=ADVANCED_FACE('',(#66,#40),#14,.T.);
#308=ADVANCED_FACE('',(#67,#41),#26,.F.);
#309=ADVANCED_FACE('',(#68,#42),#15,.T.);
#310=ADVANCED_FACE('',(#69,#43),#27,.F.);
#311=ADVANCED_FACE('',(#70,#44),#16,.T.);
#312=ADVANCED_FACE('',(#71,#45),#28,.F.);
#313=ADVANCED_FACE('',(#72,#46),#17,.T.);
#314=ADVANCED_FACE('',(#73,#47),#18,.T.);
#315=ADVANCED_FACE('',(#74,#48),#270,.T.);
#316=ADVANCED_FACE('',(#75,#49),#29,.T.);
#317=ADVANCED_FACE('',(#76,#50),#33,.F.);
#318=ADVANCED_FACE('',(#77,#51),#271,.T.);
#319=ADVANCED_FACE('',(#78,#52),#19,.T.);
#320=ADVANCED_FACE('',(#79,#53),#20,.T.);
#321=ADVANCED_FACE('',(#80,#54),#272,.T.);
#322=ADVANCED_FACE('',(#81,#55),#21,.T.);
#323=ADVANCED_FACE('',(#82,#56),#30,.T.);
#324=ADVANCED_FACE('',(#83,#57),#22,.F.);
#325=ADVANCED_FACE('',(#84,#58),#31,.T.);
#326=ADVANCED_FACE('',(#85,#59),#273,.F.);
#327=CLOSED_SHELL('',(#301,#302,#303,#304,#305,#306,#307,#308,#309,#310,
#311,#312,#313,#314,#315,#316,#317,#318,#319,#320,#321,#322,#323,#324,#325,
#326));
#328=AXIS2_PLACEMENT_3D('placement',#487,#381,#382);
#329=AXIS2_PLACEMENT_3D('',#488,#383,#384);
#330=AXIS2_PLACEMENT_3D('',#490,#385,#386);
#331=AXIS2_PLACEMENT_3D('',#492,#387,#388);
#332=AXIS2_PLACEMENT_3D('',#493,#389,#390);
#333=AXIS2_PLACEMENT_3D('',#495,#391,#392);
#334=AXIS2_PLACEMENT_3D('',#497,#393,#394);
#335=AXIS2_PLACEMENT_3D('',#498,#395,#396);
#336=AXIS2_PLACEMENT_3D('',#499,#397,#398);
#337=AXIS2_PLACEMENT_3D('',#501,#399,#400);
#338=AXIS2_PLACEMENT_3D('',#503,#401,#402);
#339=AXIS2_PLACEMENT_3D('',#504,#403,#404);
#340=AXIS2_PLACEMENT_3D('',#506,#405,#406);
#341=AXIS2_PLACEMENT_3D('',#508,#407,#408);
#342=AXIS2_PLACEMENT_3D('',#509,#409,#410);
#343=AXIS2_PLACEMENT_3D('',#511,#411,#412);
#344=AXIS2_PLACEMENT_3D('',#513,#413,#414);
#345=AXIS2_PLACEMENT_3D('',#514,#415,#416);
#346=AXIS2_PLACEMENT_3D('',#515,#417,#418);
#347=AXIS2_PLACEMENT_3D('',#517,#419,#420);
#348=AXIS2_PLACEMENT_3D('',#519,#421,#422);
#349=AXIS2_PLACEMENT_3D('',#520,#423,#424);
#350=AXIS2_PLACEMENT_3D('',#521,#425,#426);
#351=AXIS2_PLACEMENT_3D('',#523,#427,#428);
#352=AXIS2_PLACEMENT_3D('',#525,#429,#430);
#353=AXIS2_PLACEMENT_3D('',#526,#431,#432);
#354=AXIS2_PLACEMENT_3D('',#527,#433,#434);
#355=AXIS2_PLACEMENT_3D('',#529,#435,#436);
#356=AXIS2_PLACEMENT_3D('',#531,#437,#438);
#357=AXIS2_PLACEMENT_3D('',#532,#439,#440);
#358=AXIS2_PLACEMENT_3D('',#533,#441,#442);
#359=AXIS2_PLACEMENT_3D('',#535,#443,#444);
#360=AXIS2_PLACEMENT_3D('',#536,#445,#446);
#361=AXIS2_PLACEMENT_3D('',#537,#447,#448);
#362=AXIS2_PLACEMENT_3D('',#539,#449,#450);
#363=AXIS2_PLACEMENT_3D('',#540,#451,#452);
#364=AXIS2_PLACEMENT_3D('',#542,#453,#454);
#365=AXIS2_PLACEMENT_3D('',#544,#455,#456);
#366=AXIS2_PLACEMENT_3D('',#545,#457,#458);
#367=AXIS2_PLACEMENT_3D('',#546,#459,#460);
#368=AXIS2_PLACEMENT_3D('',#548,#461,#462);
#369=AXIS2_PLACEMENT_3D('',#549,#463,#464);
#370=AXIS2_PLACEMENT_3D('',#551,#465,#466);
#371=AXIS2_PLACEMENT_3D('',#552,#467,#468);
#372=AXIS2_PLACEMENT_3D('',#554,#469,#470);
#373=AXIS2_PLACEMENT_3D('',#555,#471,#472);
#374=AXIS2_PLACEMENT_3D('',#557,#473,#474);
#375=AXIS2_PLACEMENT_3D('',#558,#475,#476);
#376=AXIS2_PLACEMENT_3D('',#560,#477,#478);
#377=AXIS2_PLACEMENT_3D('',#561,#479,#480);
#378=AXIS2_PLACEMENT_3D('',#562,#481,#482);
#379=AXIS2_PLACEMENT_3D('',#564,#483,#484);
#380=AXIS2_PLACEMENT_3D('',#565,#485,#486);
#381=DIRECTION('axis',(0.,0.,1.));
#382=DIRECTION('refdir',(1.,0.,0.));
#383=DIRECTION('center_axis',(1.,-6.76614037079071E-81,-3.08148791101958E-33));
#384=DIRECTION('ref_axis',(8.57044446966823E-81,1.,5.85530156527704E-49));
#385=DIRECTION('center_axis',(1.,-6.76614037079071E-81,-3.08148791101958E-33));
#386=DIRECTION('ref_axis',(-3.08148791101958E-33,5.85530156527704E-49,-1.));
#387=DIRECTION('center_axis',(-1.,1.11180332833518E-16,2.95594978618938E-17));
#388=DIRECTION('ref_axis',(5.21001053792883E-17,0.208587301278258,0.978003751396411));
#389=DIRECTION('center_axis',(1.,-6.76614037079071E-81,-3.08148791101958E-33));
#390=DIRECTION('ref_axis',(8.57044446966823E-81,1.,5.85530156527704E-49));
#391=DIRECTION('center_axis',(1.,-6.76614037079071E-81,-3.08148791101958E-33));
#392=DIRECTION('ref_axis',(-3.08148791101958E-33,5.85530156527704E-49,-1.));
#393=DIRECTION('center_axis',(1.,-6.76614037079071E-81,-3.08148791101958E-33));
#394=DIRECTION('ref_axis',(8.57044446966823E-81,1.,5.85530156527704E-49));
#395=DIRECTION('center_axis',(1.,-6.76614037079071E-81,-3.08148791101958E-33));
#396=DIRECTION('ref_axis',(0.,0.,-1.));
#397=DIRECTION('center_axis',(-1.,0.,0.));
#398=DIRECTION('ref_axis',(0.,0.,1.));
#399=DIRECTION('center_axis',(1.,0.,0.));
#400=DIRECTION('ref_axis',(0.,0.,-1.));
#401=DIRECTION('center_axis',(-1.,1.11180332833518E-16,2.95594978618938E-17));
#402=DIRECTION('ref_axis',(5.21001053792883E-17,0.208587301278258,0.978003751396411));
#403=DIRECTION('center_axis',(1.,0.,0.));
#404=DIRECTION('ref_axis',(0.,0.,-1.));
#405=DIRECTION('center_axis',(-1.,0.,0.));
#406=DIRECTION('ref_axis',(0.,0.,1.));
#407=DIRECTION('center_axis',(-1.,0.,0.));
#408=DIRECTION('ref_axis',(0.,0.,1.));
#409=DIRECTION('center_axis',(-1.,0.,0.));
#410=DIRECTION('ref_axis',(0.,0.,1.));
#411=DIRECTION('center_axis',(-1.,0.,0.));
#412=DIRECTION('ref_axis',(0.,1.,0.));
#413=DIRECTION('center_axis',(-1.,0.,0.));
#414=DIRECTION('ref_axis',(0.,0.,1.));
#415=DIRECTION('center_axis',(-1.,0.,0.));
#416=DIRECTION('ref_axis',(0.,1.,0.));
#417=DIRECTION('center_axis',(1.,0.,0.));
#418=DIRECTION('ref_axis',(0.,0.,-1.));
#419=DIRECTION('center_axis',(-1.,0.,0.));
#420=DIRECTION('ref_axis',(0.,0.,1.));
#421=DIRECTION('center_axis',(-1.,0.,0.));
#422=DIRECTION('ref_axis',(0.,0.,1.));
#423=DIRECTION('center_axis',(-1.,0.,0.));
#424=DIRECTION('ref_axis',(0.,1.,0.));
#425=DIRECTION('center_axis',(1.,0.,0.));
#426=DIRECTION('ref_axis',(0.,0.,-1.));
#427=DIRECTION('center_axis',(-1.,0.,0.));
#428=DIRECTION('ref_axis',(0.,0.,1.));
#429=DIRECTION('center_axis',(-1.,0.,0.));
#430=DIRECTION('ref_axis',(0.,0.,1.));
#431=DIRECTION('center_axis',(-1.,0.,0.));
#432=DIRECTION('ref_axis',(0.,1.,0.));
#433=DIRECTION('center_axis',(1.,0.,0.));
#434=DIRECTION('ref_axis',(0.,0.,-1.));
#435=DIRECTION('center_axis',(-1.,0.,0.));
#436=DIRECTION('ref_axis',(0.,0.,1.));
#437=DIRECTION('center_axis',(-1.,0.,0.));
#438=DIRECTION('ref_axis',(0.,0.,1.));
#439=DIRECTION('center_axis',(-1.,0.,0.));
#440=DIRECTION('ref_axis',(0.,1.,0.));
#441=DIRECTION('center_axis',(-1.,0.,0.));
#442=DIRECTION('ref_axis',(0.,1.,0.));
#443=DIRECTION('center_axis',(1.,0.,0.));
#444=DIRECTION('ref_axis',(0.,1.,0.));
#445=DIRECTION('center_axis',(1.,0.,0.));
#446=DIRECTION('ref_axis',(0.,1.,0.));
#447=DIRECTION('center_axis',(1.,0.,0.));
#448=DIRECTION('ref_axis',(0.,0.,-1.));
#449=DIRECTION('center_axis',(1.,0.,0.));
#450=DIRECTION('ref_axis',(0.,0.,-1.));
#451=DIRECTION('center_axis',(-1.,1.11180332833518E-16,2.95594978618938E-17));
#452=DIRECTION('ref_axis',(0.,0.208587301278258,0.978003751396411));
#453=DIRECTION('center_axis',(-1.,1.11180332833518E-16,2.95594978618938E-17));
#454=DIRECTION('ref_axis',(-1.02569046706529E-16,-0.978003751396411,0.208587301278257));
#455=DIRECTION('center_axis',(1.,-1.11180332833518E-16,-2.95594978618938E-17));
#456=DIRECTION('ref_axis',(-1.02569046706529E-16,-0.978003751396411,0.208587301278258));
#457=DIRECTION('center_axis',(-1.,1.11180332833518E-16,2.95594978618938E-17));
#458=DIRECTION('ref_axis',(1.02569046706529E-16,0.978003751396411,-0.208587301278258));
#459=DIRECTION('center_axis',(-1.,1.11180332833518E-16,2.95594978618938E-17));
#460=DIRECTION('ref_axis',(1.02569046706529E-16,0.978003751396411,-0.208587301278258));
#461=DIRECTION('center_axis',(-1.,1.11180332833518E-16,2.95594978618938E-17));
#462=DIRECTION('ref_axis',(5.21001053792883E-17,0.208587301278258,0.978003751396411));
#463=DIRECTION('center_axis',(-1.,1.11180332833518E-16,2.95594978618938E-17));
#464=DIRECTION('ref_axis',(1.02569046706529E-16,0.978003751396411,-0.208587301278258));
#465=DIRECTION('center_axis',(-1.,1.11180332833518E-16,2.95594978618938E-17));
#466=DIRECTION('ref_axis',(5.21001053792883E-17,0.208587301278258,0.978003751396411));
#467=DIRECTION('center_axis',(-1.,1.11180332833518E-16,2.95594978618938E-17));
#468=DIRECTION('ref_axis',(1.02569046706529E-16,0.978003751396411,-0.208587301278258));
#469=DIRECTION('center_axis',(-1.,1.11180332833518E-16,2.95594978618938E-17));
#470=DIRECTION('ref_axis',(5.21001053792883E-17,0.208587301278258,0.978003751396411));
#471=DIRECTION('center_axis',(1.,-1.11180332833518E-16,-2.95594978618938E-17));
#472=DIRECTION('ref_axis',(1.02569046706529E-16,0.978003751396411,-0.208587301278258));
#473=DIRECTION('center_axis',(-1.,1.11180332833518E-16,2.95594978618938E-17));
#474=DIRECTION('ref_axis',(5.21001053792883E-17,0.208587301278258,0.978003751396411));
#475=DIRECTION('center_axis',(-1.,1.11180332833518E-16,2.95594978618938E-17));
#476=DIRECTION('ref_axis',(0.,0.208587301278258,0.978003751396411));
#477=DIRECTION('center_axis',(-1.,1.11180332833518E-16,2.95594978618938E-17));
#478=DIRECTION('ref_axis',(5.21001053792883E-17,0.208587301278258,0.978003751396411));
#479=DIRECTION('center_axis',(-1.,1.11180332833518E-16,2.95594978618938E-17));
#480=DIRECTION('ref_axis',(1.02569046706529E-16,0.978003751396411,-0.208587301278258));
#481=DIRECTION('center_axis',(-1.,1.11180332833518E-16,2.95594978618938E-17));
#482=DIRECTION('ref_axis',(0.,0.208587301278258,0.978003751396411));
#483=DIRECTION('center_axis',(-1.,1.11180332833518E-16,2.95594978618938E-17));
#484=DIRECTION('ref_axis',(5.21001053792883E-17,0.208587301278258,0.978003751396411));
#485=DIRECTION('center_axis',(-1.,1.11180332833518E-16,2.95594978618938E-17));
#486=DIRECTION('ref_axis',(1.02569046706529E-16,0.978003751396411,-0.208587301278258));
#487=CARTESIAN_POINT('',(0.,0.,0.));
#488=CARTESIAN_POINT('Origin',(-61.0797958971133,-1.10369093360742E-15,
4.13832970066513E-16));
#489=CARTESIAN_POINT('',(-63.1595917942265,9.,4.13832970066513E-16));
#490=CARTESIAN_POINT('Origin',(-63.1595917942265,-1.10369093360742E-15,
4.13832970066513E-16));
#491=CARTESIAN_POINT('',(-62.,8.80203376256771,-1.87728571150432));
#492=CARTESIAN_POINT('Origin',(-62.,1.04407586365591E-14,5.02511463652198E-16));
#493=CARTESIAN_POINT('Origin',(-61.0797958971133,-1.10369093360742E-15,
4.13832970066513E-16));
#494=CARTESIAN_POINT('',(-63.1595917942265,13.,4.13832970066513E-16));
#495=CARTESIAN_POINT('Origin',(-63.1595917942265,-1.10369093360742E-15,
4.13832970066513E-16));
#496=CARTESIAN_POINT('',(-62.3809523809524,-13.,-1.17820786882505E-15));
#497=CARTESIAN_POINT('Origin',(-62.3809523809524,-1.10369093360742E-15,
4.13832970066513E-16));
#498=CARTESIAN_POINT('Origin',(-61.2,-1.10369093360742E-15,4.13832970066513E-16));
#499=CARTESIAN_POINT('Origin',(-45.,10.5,0.));
#500=CARTESIAN_POINT('',(-45.,10.5,0.));
#501=CARTESIAN_POINT('Origin',(-45.,0.,0.));
#502=CARTESIAN_POINT('',(-45.,9.29103563826592,-1.98157936214345));
#503=CARTESIAN_POINT('Origin',(-45.,8.55069297838934E-15,2.34193081237488E-30));
#504=CARTESIAN_POINT('Origin',(-20.,12.6,0.));
#505=CARTESIAN_POINT('',(-20.,10.4816349035423,0.));
#506=CARTESIAN_POINT('Origin',(-20.,0.,0.));
#507=CARTESIAN_POINT('',(-20.,9.6,0.));
#508=CARTESIAN_POINT('Origin',(-20.,0.,0.));
#509=CARTESIAN_POINT('Origin',(-25.,10.4816349035423,0.));
#510=CARTESIAN_POINT('',(-25.,-10.5,1.28587913910472E-15));
#511=CARTESIAN_POINT('Origin',(-25.,0.,0.));
#512=CARTESIAN_POINT('',(-25.,10.4816349035423,0.));
#513=CARTESIAN_POINT('Origin',(-25.,0.,0.));
#514=CARTESIAN_POINT('Origin',(-22.5,0.,0.));
#515=CARTESIAN_POINT('Origin',(-15.,12.6,0.));
#516=CARTESIAN_POINT('',(-15.,10.4816349035423,0.));
#517=CARTESIAN_POINT('Origin',(-15.,0.,0.));
#518=CARTESIAN_POINT('',(-15.,9.6,0.));
#519=CARTESIAN_POINT('Origin',(-15.,0.,0.));
#520=CARTESIAN_POINT('Origin',(-17.5,0.,0.));
#521=CARTESIAN_POINT('Origin',(-10.,12.6,0.));
#522=CARTESIAN_POINT('',(-10.,10.4816349035423,0.));
#523=CARTESIAN_POINT('Origin',(-10.,0.,0.));
#524=CARTESIAN_POINT('',(-10.,9.6,0.));
#525=CARTESIAN_POINT('Origin',(-10.,0.,0.));
#526=CARTESIAN_POINT('Origin',(-12.5,0.,0.));
#527=CARTESIAN_POINT('Origin',(-5.,12.6,0.));
#528=CARTESIAN_POINT('',(-5.,10.4816349035423,0.));
#529=CARTESIAN_POINT('Origin',(-5.,0.,0.));
#530=CARTESIAN_POINT('',(-5.,9.6,0.));
#531=CARTESIAN_POINT('Origin',(-5.,0.,0.));
#532=CARTESIAN_POINT('Origin',(-7.5,0.,0.));
#533=CARTESIAN_POINT('Origin',(-2.5,0.,0.));
#534=CARTESIAN_POINT('',(0.,9.6,0.));
#535=CARTESIAN_POINT('Origin',(-1.38777878078145E-15,0.,0.));
#536=CARTESIAN_POINT('Origin',(-22.5,0.,0.));
#537=CARTESIAN_POINT('Origin',(-1.46957615897682E-15,8.,0.));
#538=CARTESIAN_POINT('',(-1.46957615897682E-15,8.,0.));
#539=CARTESIAN_POINT('Origin',(0.,0.,0.));
#540=CARTESIAN_POINT('Origin',(-51.4450247668357,9.2672529770864E-15,1.90511695815134E-16));
#541=CARTESIAN_POINT('',(-51.4450247668357,9.29103563826592,-1.98157936214345));
#542=CARTESIAN_POINT('Origin',(-51.4450247668357,9.2672529770864E-15,1.90511695815134E-16));
#543=CARTESIAN_POINT('',(-52.9989621173926,10.483071163941,-2.23581506724515));
#544=CARTESIAN_POINT('Origin',(-52.9989621173926,9.78228071962215E-15,1.84120274687572E-15));
#545=CARTESIAN_POINT('Origin',(-48.85,8.97873725979838E-15,1.13804066768294E-16));
#546=CARTESIAN_POINT('Origin',(-53.35,9.47904875754922E-15,2.46821807146816E-16));
#547=CARTESIAN_POINT('',(-54.,14.4744555206669,-3.08709205891821));
#548=CARTESIAN_POINT('Origin',(-54.,9.551315973891E-15,2.66035480757047E-16));
#549=CARTESIAN_POINT('Origin',(-54.6350852961086,9.62192496849003E-15,2.84808283209489E-16));
#550=CARTESIAN_POINT('',(-55.2701705922172,16.626063773739,-3.54598412173038));
#551=CARTESIAN_POINT('Origin',(-55.2701705922172,9.69253396308905E-15,3.03581085661931E-16));
#552=CARTESIAN_POINT('Origin',(-60.,1.02183979708921E-14,4.4339246792841E-16));
#553=CARTESIAN_POINT('',(-64.7298294077828,16.626063773739,-3.54598412173038));
#554=CARTESIAN_POINT('Origin',(-64.7298294077828,1.07442619786952E-14,5.83203850194889E-16));
#555=CARTESIAN_POINT('Origin',(-65.3649147038914,1.08148709732942E-14,6.01976652647331E-16));
#556=CARTESIAN_POINT('',(-66.,14.4744555206669,-3.08709205891821));
#557=CARTESIAN_POINT('Origin',(-66.,1.08854799678932E-14,6.20749455099773E-16));
#558=CARTESIAN_POINT('Origin',(-66.,13.6431523319799,-2.90979285283169));
#559=CARTESIAN_POINT('',(-66.,13.6431523319799,-2.90979285283169));
#560=CARTESIAN_POINT('Origin',(-66.,1.08854799678932E-14,6.20749455099773E-16));
#561=CARTESIAN_POINT('Origin',(-64.,1.06631193022262E-14,5.61630459375985E-16));
#562=CARTESIAN_POINT('Origin',(-62.,7.8240300111713,-1.66869841022606));
#563=CARTESIAN_POINT('',(-62.,7.8240300111713,-1.66869841022606));
#564=CARTESIAN_POINT('Origin',(-62.,1.04407586365591E-14,5.02511463652198E-16));
#565=CARTESIAN_POINT('Origin',(-53.5,9.49572580747424E-15,2.512557318261E-16));
#566=UNCERTAINTY_MEASURE_WITH_UNIT(LENGTH_MEASURE(0.01),#570,
'DISTANCE_ACCURACY_VALUE',
'Maximum model space distance between geometric entities at asserted c
onnectivities');
#567=UNCERTAINTY_MEASURE_WITH_UNIT(LENGTH_MEASURE(1.E-6),#570,
'DISTANCE_ACCURACY_VALUE',
'Maximum model space distance between geometric entities at asserted c
onnectivities');
#568=(
GEOMETRIC_REPRESENTATION_CONTEXT(3)
GLOBAL_UNCERTAINTY_ASSIGNED_CONTEXT((#566))
GLOBAL_UNIT_ASSIGNED_CONTEXT((#570,#573,#571))
REPRESENTATION_CONTEXT('','3D')
);
#569=(
GEOMETRIC_REPRESENTATION_CONTEXT(3)
GLOBAL_UNCERTAINTY_ASSIGNED_CONTEXT((#567))
GLOBAL_UNIT_ASSIGNED_CONTEXT((#570,#573,#571))
REPRESENTATION_CONTEXT('','3D')
);
#570=(
LENGTH_UNIT()
NAMED_UNIT(*)
SI_UNIT(.MILLI.,.METRE.)
);
#571=(
NAMED_UNIT(*)
SI_UNIT($,.STERADIAN.)
SOLID_ANGLE_UNIT()
);
#572=DIMENSIONAL_EXPONENTS(0.,0.,0.,0.,0.,0.,0.);
#573=(
CONVERSION_BASED_UNIT('degree',#575)
NAMED_UNIT(#572)
PLANE_ANGLE_UNIT()
);
#574=(
NAMED_UNIT(*)
PLANE_ANGLE_UNIT()
SI_UNIT($,.RADIAN.)
);
#575=PLANE_ANGLE_MEASURE_WITH_UNIT(PLANE_ANGLE_MEASURE(0.01745329252),#574);
#576=SHAPE_DEFINITION_REPRESENTATION(#577,#578);
#577=PRODUCT_DEFINITION_SHAPE('',$,#580);
#578=SHAPE_REPRESENTATION('',(#328),#568);
#579=DESIGN_CONTEXT('part definition',#584,'design');
#580=PRODUCT_DEFINITION('26010015000','26010015000',#581,#579);
#581=PRODUCT_DEFINITION_FORMATION('',$,#586);
#582=PRODUCT_RELATED_PRODUCT_CATEGORY('26010015000','26010015000',(#586));
#583=APPLICATION_PROTOCOL_DEFINITION('international standard',
'ap203_configuration_controlled_3d_design_of_mechanical_parts_and_asse
mblies_mim_lf',2004,#584);
#584=APPLICATION_CONTEXT(
'Configuration Controlled 3D Design of Mechanical Parts and Assemblies');
#585=MECHANICAL_CONTEXT('part definition',#584,'mechanical');
#586=PRODUCT('26010015000','26010015000',$,(#585));
#587=PRESENTATION_STYLE_ASSIGNMENT((#589));
#588=PRESENTATION_STYLE_ASSIGNMENT((#590));
#589=SURFACE_STYLE_USAGE(.BOTH.,#591);
#590=SURFACE_STYLE_USAGE(.BOTH.,#592);
#591=SURFACE_SIDE_STYLE($,(#593));
#592=SURFACE_SIDE_STYLE($,(#594));
#593=SURFACE_STYLE_FILL_AREA(#595);
#594=SURFACE_STYLE_FILL_AREA(#596);
#595=FILL_AREA_STYLE($,(#597));
#596=FILL_AREA_STYLE($,(#598));
#597=FILL_AREA_STYLE_COLOUR($,#599);
#598=FILL_AREA_STYLE_COLOUR($,#600);
#599=COLOUR_RGB('',0.745098039215686,0.737254901960784,0.729411764705882);
#600=COLOUR_RGB('',0.,0.6,0.8);
ENDSEC;
END-ISO-10303-21;
