ISO-10303-21;
HEADER;
/* Generated by software containing ST-Developer
 * from STEP Tools, Inc. (www.steptools.com) 
 */

FILE_DESCRIPTION(
/* description */ (''),
/* implementation_level */ '2;1');

FILE_NAME(
/* name */ 
'C:\\Vault_Workspace\\DATA\\Katalog Bupospol\\2 Potrubn\X\ED d\X\EDly\\
2.6 Hadicov\X\E9 n\X\E1stavce\\26010\\26010\\26010025000.stp',
/* time_stamp */ '2016-03-08T11:16:41+01:00',
/* author */ ('Struska'),
/* organization */ ('BUPOSPOL'),
/* preprocessor_version */ 'ST-DEVELOPER v15.6',
/* originating_system */ 'Autodesk Inventor 2015',
/* authorisation */ '');

FILE_SCHEMA (('CONFIG_CONTROL_DESIGN'));
ENDSEC;

DATA;
#10=MECHANICAL_DESIGN_GEOMETRIC_PRESENTATION_REPRESENTATION('',(#287,#286,
#288,#285,#289,#268,#276,#269,#284,#281,#270,#271,#265,#272,#264,#280,#277,
#273,#282,#274,#266,#275,#278,#283,#267,#279),#548);
#11=SHAPE_REPRESENTATION_RELATIONSHIP('SRR','None',#557,#12);
#12=ADVANCED_BREP_SHAPE_REPRESENTATION($,(#13),#547);
#13=MANIFOLD_SOLID_BREP('T\X2\011B\X0\leso1',#315);
#14=CYLINDRICAL_SURFACE('',#340,13.45);
#15=CYLINDRICAL_SURFACE('',#343,11.6);
#16=CYLINDRICAL_SURFACE('',#355,26.);
#17=CYLINDRICAL_SURFACE('',#362,15.);
#18=CONICAL_SURFACE('',#329,13.0441408822463,5.99999999999994);
#19=CONICAL_SURFACE('',#333,13.0441408822463,5.99999999999994);
#20=CONICAL_SURFACE('',#337,13.0441408822463,5.99999999999994);
#21=CONICAL_SURFACE('',#338,13.0441408822463,5.99999999999994);
#22=CONICAL_SURFACE('',#348,13.75,6.62580956482299);
#23=CONICAL_SURFACE('',#349,19.15,77.3528787821323);
#24=CONICAL_SURFACE('',#353,24.9,60.);
#25=CONICAL_SURFACE('',#357,24.9,60.0000000000001);
#26=CONICAL_SURFACE('',#361,20.85,15.1858372622013);
#27=CONICAL_SURFACE('',#366,12.25,3.90049374238189);
#28=PLANE('',#320);
#29=PLANE('',#323);
#30=PLANE('',#326);
#31=PLANE('',#330);
#32=PLANE('',#334);
#33=PLANE('',#341);
#34=PLANE('',#351);
#35=PLANE('',#359);
#36=PLANE('',#364);
#37=FACE_BOUND('',#88,.T.);
#38=FACE_BOUND('',#90,.T.);
#39=FACE_BOUND('',#92,.T.);
#40=FACE_BOUND('',#94,.T.);
#41=FACE_BOUND('',#96,.T.);
#42=FACE_BOUND('',#98,.T.);
#43=FACE_BOUND('',#100,.T.);
#44=FACE_BOUND('',#102,.T.);
#45=FACE_BOUND('',#104,.T.);
#46=FACE_BOUND('',#106,.T.);
#47=FACE_BOUND('',#108,.T.);
#48=FACE_BOUND('',#110,.T.);
#49=FACE_BOUND('',#112,.T.);
#50=FACE_BOUND('',#114,.T.);
#51=FACE_BOUND('',#116,.T.);
#52=FACE_BOUND('',#118,.T.);
#53=FACE_BOUND('',#120,.T.);
#54=FACE_BOUND('',#122,.T.);
#55=FACE_BOUND('',#124,.T.);
#56=FACE_BOUND('',#126,.T.);
#57=FACE_BOUND('',#128,.T.);
#58=FACE_BOUND('',#130,.T.);
#59=FACE_BOUND('',#132,.T.);
#60=FACE_BOUND('',#134,.T.);
#61=FACE_BOUND('',#136,.T.);
#62=FACE_OUTER_BOUND('',#87,.T.);
#63=FACE_OUTER_BOUND('',#89,.T.);
#64=FACE_OUTER_BOUND('',#91,.T.);
#65=FACE_OUTER_BOUND('',#93,.T.);
#66=FACE_OUTER_BOUND('',#95,.T.);
#67=FACE_OUTER_BOUND('',#97,.T.);
#68=FACE_OUTER_BOUND('',#99,.T.);
#69=FACE_OUTER_BOUND('',#101,.T.);
#70=FACE_OUTER_BOUND('',#103,.T.);
#71=FACE_OUTER_BOUND('',#105,.T.);
#72=FACE_OUTER_BOUND('',#107,.T.);
#73=FACE_OUTER_BOUND('',#109,.T.);
#74=FACE_OUTER_BOUND('',#111,.T.);
#75=FACE_OUTER_BOUND('',#113,.T.);
#76=FACE_OUTER_BOUND('',#115,.T.);
#77=FACE_OUTER_BOUND('',#117,.T.);
#78=FACE_OUTER_BOUND('',#119,.T.);
#79=FACE_OUTER_BOUND('',#121,.T.);
#80=FACE_OUTER_BOUND('',#123,.T.);
#81=FACE_OUTER_BOUND('',#125,.T.);
#82=FACE_OUTER_BOUND('',#127,.T.);
#83=FACE_OUTER_BOUND('',#129,.T.);
#84=FACE_OUTER_BOUND('',#131,.T.);
#85=FACE_OUTER_BOUND('',#133,.T.);
#86=FACE_OUTER_BOUND('',#135,.T.);
#87=EDGE_LOOP('',(#212));
#88=EDGE_LOOP('',(#213));
#89=EDGE_LOOP('',(#214));
#90=EDGE_LOOP('',(#215));
#91=EDGE_LOOP('',(#216));
#92=EDGE_LOOP('',(#217));
#93=EDGE_LOOP('',(#218));
#94=EDGE_LOOP('',(#219));
#95=EDGE_LOOP('',(#220));
#96=EDGE_LOOP('',(#221));
#97=EDGE_LOOP('',(#222));
#98=EDGE_LOOP('',(#223));
#99=EDGE_LOOP('',(#224));
#100=EDGE_LOOP('',(#225));
#101=EDGE_LOOP('',(#226));
#102=EDGE_LOOP('',(#227));
#103=EDGE_LOOP('',(#228));
#104=EDGE_LOOP('',(#229));
#105=EDGE_LOOP('',(#230));
#106=EDGE_LOOP('',(#231));
#107=EDGE_LOOP('',(#232));
#108=EDGE_LOOP('',(#233));
#109=EDGE_LOOP('',(#234));
#110=EDGE_LOOP('',(#235));
#111=EDGE_LOOP('',(#236));
#112=EDGE_LOOP('',(#237));
#113=EDGE_LOOP('',(#238));
#114=EDGE_LOOP('',(#239));
#115=EDGE_LOOP('',(#240));
#116=EDGE_LOOP('',(#241));
#117=EDGE_LOOP('',(#242));
#118=EDGE_LOOP('',(#243));
#119=EDGE_LOOP('',(#244));
#120=EDGE_LOOP('',(#245));
#121=EDGE_LOOP('',(#246));
#122=EDGE_LOOP('',(#247));
#123=EDGE_LOOP('',(#248));
#124=EDGE_LOOP('',(#249));
#125=EDGE_LOOP('',(#250));
#126=EDGE_LOOP('',(#251));
#127=EDGE_LOOP('',(#252));
#128=EDGE_LOOP('',(#253));
#129=EDGE_LOOP('',(#254));
#130=EDGE_LOOP('',(#255));
#131=EDGE_LOOP('',(#256));
#132=EDGE_LOOP('',(#257));
#133=EDGE_LOOP('',(#258));
#134=EDGE_LOOP('',(#259));
#135=EDGE_LOOP('',(#260));
#136=EDGE_LOOP('',(#261));
#137=CIRCLE('',#318,15.);
#138=CIRCLE('',#319,19.9264157576777);
#139=CIRCLE('',#321,13.45);
#140=CIRCLE('',#322,13.);
#141=CIRCLE('',#324,13.4382817644926);
#142=CIRCLE('',#325,12.65);
#143=CIRCLE('',#327,13.45);
#144=CIRCLE('',#328,13.4382817644926);
#145=CIRCLE('',#331,13.4382817644926);
#146=CIRCLE('',#332,12.65);
#147=CIRCLE('',#335,13.4382817644926);
#148=CIRCLE('',#336,12.65);
#149=CIRCLE('',#339,12.65);
#150=CIRCLE('',#342,11.6);
#151=CIRCLE('',#344,11.6);
#152=CIRCLE('',#346,14.295277238932);
#153=CIRCLE('',#347,16.2312150104954);
#154=CIRCLE('',#350,23.8);
#155=CIRCLE('',#352,11.5);
#156=CIRCLE('',#354,26.);
#157=CIRCLE('',#356,26.);
#158=CIRCLE('',#358,23.8);
#159=CIRCLE('',#360,21.8);
#160=CIRCLE('',#363,15.);
#161=CIRCLE('',#365,13.);
#162=VERTEX_POINT('',#471);
#163=VERTEX_POINT('',#473);
#164=VERTEX_POINT('',#476);
#165=VERTEX_POINT('',#478);
#166=VERTEX_POINT('',#481);
#167=VERTEX_POINT('',#483);
#168=VERTEX_POINT('',#486);
#169=VERTEX_POINT('',#488);
#170=VERTEX_POINT('',#492);
#171=VERTEX_POINT('',#494);
#172=VERTEX_POINT('',#498);
#173=VERTEX_POINT('',#500);
#174=VERTEX_POINT('',#504);
#175=VERTEX_POINT('',#508);
#176=VERTEX_POINT('',#511);
#177=VERTEX_POINT('',#514);
#178=VERTEX_POINT('',#516);
#179=VERTEX_POINT('',#520);
#180=VERTEX_POINT('',#523);
#181=VERTEX_POINT('',#526);
#182=VERTEX_POINT('',#529);
#183=VERTEX_POINT('',#532);
#184=VERTEX_POINT('',#535);
#185=VERTEX_POINT('',#539);
#186=VERTEX_POINT('',#542);
#187=EDGE_CURVE('',#162,#162,#137,.T.);
#188=EDGE_CURVE('',#163,#163,#138,.T.);
#189=EDGE_CURVE('',#164,#164,#139,.T.);
#190=EDGE_CURVE('',#165,#165,#140,.T.);
#191=EDGE_CURVE('',#166,#166,#141,.T.);
#192=EDGE_CURVE('',#167,#167,#142,.T.);
#193=EDGE_CURVE('',#168,#168,#143,.T.);
#194=EDGE_CURVE('',#169,#169,#144,.T.);
#195=EDGE_CURVE('',#170,#170,#145,.T.);
#196=EDGE_CURVE('',#171,#171,#146,.T.);
#197=EDGE_CURVE('',#172,#172,#147,.T.);
#198=EDGE_CURVE('',#173,#173,#148,.T.);
#199=EDGE_CURVE('',#174,#174,#149,.T.);
#200=EDGE_CURVE('',#175,#175,#150,.T.);
#201=EDGE_CURVE('',#176,#176,#151,.T.);
#202=EDGE_CURVE('',#177,#177,#152,.T.);
#203=EDGE_CURVE('',#178,#178,#153,.T.);
#204=EDGE_CURVE('',#179,#179,#154,.T.);
#205=EDGE_CURVE('',#180,#180,#155,.T.);
#206=EDGE_CURVE('',#181,#181,#156,.T.);
#207=EDGE_CURVE('',#182,#182,#157,.T.);
#208=EDGE_CURVE('',#183,#183,#158,.T.);
#209=EDGE_CURVE('',#184,#184,#159,.T.);
#210=EDGE_CURVE('',#185,#185,#160,.T.);
#211=EDGE_CURVE('',#186,#186,#161,.T.);
#212=ORIENTED_EDGE('',*,*,#187,.F.);
#213=ORIENTED_EDGE('',*,*,#188,.F.);
#214=ORIENTED_EDGE('',*,*,#189,.F.);
#215=ORIENTED_EDGE('',*,*,#190,.F.);
#216=ORIENTED_EDGE('',*,*,#191,.T.);
#217=ORIENTED_EDGE('',*,*,#192,.F.);
#218=ORIENTED_EDGE('',*,*,#193,.F.);
#219=ORIENTED_EDGE('',*,*,#194,.T.);
#220=ORIENTED_EDGE('',*,*,#192,.T.);
#221=ORIENTED_EDGE('',*,*,#194,.F.);
#222=ORIENTED_EDGE('',*,*,#195,.T.);
#223=ORIENTED_EDGE('',*,*,#196,.F.);
#224=ORIENTED_EDGE('',*,*,#196,.T.);
#225=ORIENTED_EDGE('',*,*,#191,.F.);
#226=ORIENTED_EDGE('',*,*,#197,.T.);
#227=ORIENTED_EDGE('',*,*,#198,.F.);
#228=ORIENTED_EDGE('',*,*,#198,.T.);
#229=ORIENTED_EDGE('',*,*,#195,.F.);
#230=ORIENTED_EDGE('',*,*,#199,.F.);
#231=ORIENTED_EDGE('',*,*,#197,.F.);
#232=ORIENTED_EDGE('',*,*,#193,.T.);
#233=ORIENTED_EDGE('',*,*,#189,.T.);
#234=ORIENTED_EDGE('',*,*,#199,.T.);
#235=ORIENTED_EDGE('',*,*,#200,.F.);
#236=ORIENTED_EDGE('',*,*,#200,.T.);
#237=ORIENTED_EDGE('',*,*,#201,.F.);
#238=ORIENTED_EDGE('',*,*,#202,.T.);
#239=ORIENTED_EDGE('',*,*,#203,.T.);
#240=ORIENTED_EDGE('',*,*,#190,.T.);
#241=ORIENTED_EDGE('',*,*,#202,.F.);
#242=ORIENTED_EDGE('',*,*,#204,.F.);
#243=ORIENTED_EDGE('',*,*,#203,.F.);
#244=ORIENTED_EDGE('',*,*,#201,.T.);
#245=ORIENTED_EDGE('',*,*,#205,.T.);
#246=ORIENTED_EDGE('',*,*,#204,.T.);
#247=ORIENTED_EDGE('',*,*,#206,.F.);
#248=ORIENTED_EDGE('',*,*,#206,.T.);
#249=ORIENTED_EDGE('',*,*,#207,.F.);
#250=ORIENTED_EDGE('',*,*,#207,.T.);
#251=ORIENTED_EDGE('',*,*,#208,.F.);
#252=ORIENTED_EDGE('',*,*,#208,.T.);
#253=ORIENTED_EDGE('',*,*,#209,.F.);
#254=ORIENTED_EDGE('',*,*,#188,.T.);
#255=ORIENTED_EDGE('',*,*,#209,.T.);
#256=ORIENTED_EDGE('',*,*,#187,.T.);
#257=ORIENTED_EDGE('',*,*,#210,.F.);
#258=ORIENTED_EDGE('',*,*,#210,.T.);
#259=ORIENTED_EDGE('',*,*,#211,.F.);
#260=ORIENTED_EDGE('',*,*,#211,.T.);
#261=ORIENTED_EDGE('',*,*,#205,.F.);
#262=TOROIDAL_SURFACE('',#317,17.5,2.8);
#263=TOROIDAL_SURFACE('',#345,16.7785794639598,2.5);
#264=STYLED_ITEM('',(#567),#290);
#265=STYLED_ITEM('',(#566),#291);
#266=STYLED_ITEM('',(#566),#292);
#267=STYLED_ITEM('',(#566),#293);
#268=STYLED_ITEM('',(#566),#294);
#269=STYLED_ITEM('',(#566),#295);
#270=STYLED_ITEM('',(#566),#296);
#271=STYLED_ITEM('',(#566),#297);
#272=STYLED_ITEM('',(#566),#298);
#273=STYLED_ITEM('',(#566),#299);
#274=STYLED_ITEM('',(#566),#300);
#275=STYLED_ITEM('',(#566),#301);
#276=STYLED_ITEM('',(#566),#302);
#277=STYLED_ITEM('',(#566),#303);
#278=STYLED_ITEM('',(#566),#304);
#279=STYLED_ITEM('',(#566),#305);
#280=STYLED_ITEM('',(#566),#306);
#281=STYLED_ITEM('',(#566),#307);
#282=STYLED_ITEM('',(#566),#308);
#283=STYLED_ITEM('',(#566),#309);
#284=STYLED_ITEM('',(#566),#310);
#285=STYLED_ITEM('',(#566),#311);
#286=STYLED_ITEM('',(#566),#312);
#287=STYLED_ITEM('',(#566),#313);
#288=STYLED_ITEM('',(#566),#314);
#289=STYLED_ITEM('',(#566),#13);
#290=ADVANCED_FACE('',(#62,#37),#262,.T.);
#291=ADVANCED_FACE('',(#63,#38),#28,.T.);
#292=ADVANCED_FACE('',(#64,#39),#29,.F.);
#293=ADVANCED_FACE('',(#65,#40),#30,.F.);
#294=ADVANCED_FACE('',(#66,#41),#18,.T.);
#295=ADVANCED_FACE('',(#67,#42),#31,.F.);
#296=ADVANCED_FACE('',(#68,#43),#19,.T.);
#297=ADVANCED_FACE('',(#69,#44),#32,.F.);
#298=ADVANCED_FACE('',(#70,#45),#20,.T.);
#299=ADVANCED_FACE('',(#71,#46),#21,.T.);
#300=ADVANCED_FACE('',(#72,#47),#14,.T.);
#301=ADVANCED_FACE('',(#73,#48),#33,.T.);
#302=ADVANCED_FACE('',(#74,#49),#15,.F.);
#303=ADVANCED_FACE('',(#75,#50),#263,.F.);
#304=ADVANCED_FACE('',(#76,#51),#22,.T.);
#305=ADVANCED_FACE('',(#77,#52),#23,.T.);
#306=ADVANCED_FACE('',(#78,#53),#34,.T.);
#307=ADVANCED_FACE('',(#79,#54),#24,.T.);
#308=ADVANCED_FACE('',(#80,#55),#16,.T.);
#309=ADVANCED_FACE('',(#81,#56),#25,.T.);
#310=ADVANCED_FACE('',(#82,#57),#35,.T.);
#311=ADVANCED_FACE('',(#83,#58),#26,.F.);
#312=ADVANCED_FACE('',(#84,#59),#17,.T.);
#313=ADVANCED_FACE('',(#85,#60),#36,.T.);
#314=ADVANCED_FACE('',(#86,#61),#27,.F.);
#315=CLOSED_SHELL('',(#290,#291,#292,#293,#294,#295,#296,#297,#298,#299,
#300,#301,#302,#303,#304,#305,#306,#307,#308,#309,#310,#311,#312,#313,#314));
#316=AXIS2_PLACEMENT_3D('placement',#469,#367,#368);
#317=AXIS2_PLACEMENT_3D('',#470,#369,#370);
#318=AXIS2_PLACEMENT_3D('',#472,#371,#372);
#319=AXIS2_PLACEMENT_3D('',#474,#373,#374);
#320=AXIS2_PLACEMENT_3D('',#475,#375,#376);
#321=AXIS2_PLACEMENT_3D('',#477,#377,#378);
#322=AXIS2_PLACEMENT_3D('',#479,#379,#380);
#323=AXIS2_PLACEMENT_3D('',#480,#381,#382);
#324=AXIS2_PLACEMENT_3D('',#482,#383,#384);
#325=AXIS2_PLACEMENT_3D('',#484,#385,#386);
#326=AXIS2_PLACEMENT_3D('',#485,#387,#388);
#327=AXIS2_PLACEMENT_3D('',#487,#389,#390);
#328=AXIS2_PLACEMENT_3D('',#489,#391,#392);
#329=AXIS2_PLACEMENT_3D('',#490,#393,#394);
#330=AXIS2_PLACEMENT_3D('',#491,#395,#396);
#331=AXIS2_PLACEMENT_3D('',#493,#397,#398);
#332=AXIS2_PLACEMENT_3D('',#495,#399,#400);
#333=AXIS2_PLACEMENT_3D('',#496,#401,#402);
#334=AXIS2_PLACEMENT_3D('',#497,#403,#404);
#335=AXIS2_PLACEMENT_3D('',#499,#405,#406);
#336=AXIS2_PLACEMENT_3D('',#501,#407,#408);
#337=AXIS2_PLACEMENT_3D('',#502,#409,#410);
#338=AXIS2_PLACEMENT_3D('',#503,#411,#412);
#339=AXIS2_PLACEMENT_3D('',#505,#413,#414);
#340=AXIS2_PLACEMENT_3D('',#506,#415,#416);
#341=AXIS2_PLACEMENT_3D('',#507,#417,#418);
#342=AXIS2_PLACEMENT_3D('',#509,#419,#420);
#343=AXIS2_PLACEMENT_3D('',#510,#421,#422);
#344=AXIS2_PLACEMENT_3D('',#512,#423,#424);
#345=AXIS2_PLACEMENT_3D('',#513,#425,#426);
#346=AXIS2_PLACEMENT_3D('',#515,#427,#428);
#347=AXIS2_PLACEMENT_3D('',#517,#429,#430);
#348=AXIS2_PLACEMENT_3D('',#518,#431,#432);
#349=AXIS2_PLACEMENT_3D('',#519,#433,#434);
#350=AXIS2_PLACEMENT_3D('',#521,#435,#436);
#351=AXIS2_PLACEMENT_3D('',#522,#437,#438);
#352=AXIS2_PLACEMENT_3D('',#524,#439,#440);
#353=AXIS2_PLACEMENT_3D('',#525,#441,#442);
#354=AXIS2_PLACEMENT_3D('',#527,#443,#444);
#355=AXIS2_PLACEMENT_3D('',#528,#445,#446);
#356=AXIS2_PLACEMENT_3D('',#530,#447,#448);
#357=AXIS2_PLACEMENT_3D('',#531,#449,#450);
#358=AXIS2_PLACEMENT_3D('',#533,#451,#452);
#359=AXIS2_PLACEMENT_3D('',#534,#453,#454);
#360=AXIS2_PLACEMENT_3D('',#536,#455,#456);
#361=AXIS2_PLACEMENT_3D('',#537,#457,#458);
#362=AXIS2_PLACEMENT_3D('',#538,#459,#460);
#363=AXIS2_PLACEMENT_3D('',#540,#461,#462);
#364=AXIS2_PLACEMENT_3D('',#541,#463,#464);
#365=AXIS2_PLACEMENT_3D('',#543,#465,#466);
#366=AXIS2_PLACEMENT_3D('',#544,#467,#468);
#367=DIRECTION('axis',(0.,0.,1.));
#368=DIRECTION('refdir',(1.,0.,0.));
#369=DIRECTION('center_axis',(1.,-6.76614037079071E-81,-3.08148791101958E-33));
#370=DIRECTION('ref_axis',(0.,0.,-1.));
#371=DIRECTION('center_axis',(-1.,1.11180332833518E-16,2.95594978618938E-17));
#372=DIRECTION('ref_axis',(1.02569046706529E-16,0.978003751396411,-0.208587301278258));
#373=DIRECTION('center_axis',(1.,-1.11180332833518E-16,-2.95594978618938E-17));
#374=DIRECTION('ref_axis',(1.02569046706529E-16,0.978003751396411,-0.208587301278258));
#375=DIRECTION('center_axis',(-1.,0.,0.));
#376=DIRECTION('ref_axis',(0.,0.,1.));
#377=DIRECTION('center_axis',(1.,0.,0.));
#378=DIRECTION('ref_axis',(0.,0.,-1.));
#379=DIRECTION('center_axis',(-1.,1.11180332833518E-16,2.95594978618938E-17));
#380=DIRECTION('ref_axis',(5.21001053792883E-17,0.208587301278258,0.978003751396411));
#381=DIRECTION('center_axis',(1.,0.,0.));
#382=DIRECTION('ref_axis',(0.,0.,-1.));
#383=DIRECTION('center_axis',(-1.,0.,0.));
#384=DIRECTION('ref_axis',(0.,0.,1.));
#385=DIRECTION('center_axis',(-1.,0.,0.));
#386=DIRECTION('ref_axis',(0.,0.,1.));
#387=DIRECTION('center_axis',(-1.,0.,0.));
#388=DIRECTION('ref_axis',(0.,0.,1.));
#389=DIRECTION('center_axis',(-1.,0.,0.));
#390=DIRECTION('ref_axis',(0.,1.,0.));
#391=DIRECTION('center_axis',(-1.,0.,0.));
#392=DIRECTION('ref_axis',(0.,0.,1.));
#393=DIRECTION('center_axis',(-1.,0.,0.));
#394=DIRECTION('ref_axis',(0.,1.,0.));
#395=DIRECTION('center_axis',(1.,0.,0.));
#396=DIRECTION('ref_axis',(0.,0.,-1.));
#397=DIRECTION('center_axis',(-1.,0.,0.));
#398=DIRECTION('ref_axis',(0.,0.,1.));
#399=DIRECTION('center_axis',(-1.,0.,0.));
#400=DIRECTION('ref_axis',(0.,0.,1.));
#401=DIRECTION('center_axis',(-1.,0.,0.));
#402=DIRECTION('ref_axis',(0.,1.,0.));
#403=DIRECTION('center_axis',(1.,0.,0.));
#404=DIRECTION('ref_axis',(0.,0.,-1.));
#405=DIRECTION('center_axis',(-1.,0.,0.));
#406=DIRECTION('ref_axis',(0.,0.,1.));
#407=DIRECTION('center_axis',(-1.,0.,0.));
#408=DIRECTION('ref_axis',(0.,0.,1.));
#409=DIRECTION('center_axis',(-1.,0.,0.));
#410=DIRECTION('ref_axis',(0.,1.,0.));
#411=DIRECTION('center_axis',(-1.,0.,0.));
#412=DIRECTION('ref_axis',(0.,1.,0.));
#413=DIRECTION('center_axis',(1.,0.,0.));
#414=DIRECTION('ref_axis',(0.,1.,0.));
#415=DIRECTION('center_axis',(1.,0.,0.));
#416=DIRECTION('ref_axis',(0.,1.,0.));
#417=DIRECTION('center_axis',(1.,0.,0.));
#418=DIRECTION('ref_axis',(0.,0.,-1.));
#419=DIRECTION('center_axis',(1.,0.,0.));
#420=DIRECTION('ref_axis',(0.,0.,-1.));
#421=DIRECTION('center_axis',(1.,0.,0.));
#422=DIRECTION('ref_axis',(0.,1.,0.));
#423=DIRECTION('center_axis',(1.,-1.11180332833518E-16,-2.95594978618938E-17));
#424=DIRECTION('ref_axis',(0.,1.,0.));
#425=DIRECTION('center_axis',(-1.,1.11180332833518E-16,2.95594978618938E-17));
#426=DIRECTION('ref_axis',(0.,0.208587301278258,0.978003751396411));
#427=DIRECTION('center_axis',(-1.,1.11180332833518E-16,2.95594978618938E-17));
#428=DIRECTION('ref_axis',(-1.02569046706529E-16,-0.978003751396411,0.208587301278258));
#429=DIRECTION('center_axis',(1.,-1.11180332833518E-16,-2.95594978618938E-17));
#430=DIRECTION('ref_axis',(-1.02569046706529E-16,-0.978003751396411,0.208587301278258));
#431=DIRECTION('center_axis',(-1.,1.11180332833518E-16,2.95594978618938E-17));
#432=DIRECTION('ref_axis',(1.02569046706529E-16,0.978003751396411,-0.208587301278258));
#433=DIRECTION('center_axis',(-1.,1.11180332833518E-16,2.95594978618938E-17));
#434=DIRECTION('ref_axis',(1.02569046706529E-16,0.978003751396411,-0.208587301278258));
#435=DIRECTION('center_axis',(-1.,1.11180332833518E-16,2.95594978618938E-17));
#436=DIRECTION('ref_axis',(5.21001053792883E-17,0.208587301278258,0.978003751396411));
#437=DIRECTION('center_axis',(1.,-1.11180332833518E-16,-2.95594978618938E-17));
#438=DIRECTION('ref_axis',(0.,-0.208587301278258,-0.978003751396411));
#439=DIRECTION('center_axis',(-1.,1.11180332833518E-16,2.95594978618938E-17));
#440=DIRECTION('ref_axis',(5.21001053792883E-17,0.208587301278258,0.978003751396411));
#441=DIRECTION('center_axis',(-1.,1.11180332833518E-16,2.95594978618938E-17));
#442=DIRECTION('ref_axis',(1.02569046706529E-16,0.978003751396411,-0.208587301278258));
#443=DIRECTION('center_axis',(-1.,1.11180332833518E-16,2.95594978618938E-17));
#444=DIRECTION('ref_axis',(5.21001053792883E-17,0.208587301278258,0.978003751396411));
#445=DIRECTION('center_axis',(-1.,1.11180332833518E-16,2.95594978618938E-17));
#446=DIRECTION('ref_axis',(1.02569046706529E-16,0.978003751396411,-0.208587301278258));
#447=DIRECTION('center_axis',(-1.,1.11180332833518E-16,2.95594978618938E-17));
#448=DIRECTION('ref_axis',(5.21001053792883E-17,0.208587301278258,0.978003751396411));
#449=DIRECTION('center_axis',(1.,-1.11180332833518E-16,-2.95594978618938E-17));
#450=DIRECTION('ref_axis',(1.02569046706529E-16,0.978003751396411,-0.208587301278258));
#451=DIRECTION('center_axis',(-1.,1.11180332833518E-16,2.95594978618938E-17));
#452=DIRECTION('ref_axis',(5.21001053792883E-17,0.208587301278258,0.978003751396411));
#453=DIRECTION('center_axis',(-1.,1.11180332833518E-16,2.95594978618938E-17));
#454=DIRECTION('ref_axis',(0.,0.208587301278258,0.978003751396411));
#455=DIRECTION('center_axis',(-1.,1.11180332833518E-16,2.95594978618938E-17));
#456=DIRECTION('ref_axis',(5.21001053792883E-17,0.208587301278258,0.978003751396411));
#457=DIRECTION('center_axis',(-1.,1.11180332833518E-16,2.95594978618938E-17));
#458=DIRECTION('ref_axis',(1.02569046706529E-16,0.978003751396411,-0.208587301278258));
#459=DIRECTION('center_axis',(-1.,1.11180332833518E-16,2.95594978618938E-17));
#460=DIRECTION('ref_axis',(1.02569046706529E-16,0.978003751396411,-0.208587301278258));
#461=DIRECTION('center_axis',(-1.,1.11180332833518E-16,2.95594978618938E-17));
#462=DIRECTION('ref_axis',(5.21001053792883E-17,0.208587301278258,0.978003751396411));
#463=DIRECTION('center_axis',(-1.,1.11180332833518E-16,2.95594978618938E-17));
#464=DIRECTION('ref_axis',(0.,0.208587301278258,0.978003751396411));
#465=DIRECTION('center_axis',(-1.,1.11180332833518E-16,2.95594978618938E-17));
#466=DIRECTION('ref_axis',(5.21001053792883E-17,0.208587301278258,0.978003751396411));
#467=DIRECTION('center_axis',(-1.,1.11180332833518E-16,2.95594978618938E-17));
#468=DIRECTION('ref_axis',(1.02569046706529E-16,0.978003751396411,-0.208587301278258));
#469=CARTESIAN_POINT('',(0.,0.,0.));
#470=CARTESIAN_POINT('Origin',(-79.7,-3.18356336576969E-16,5.46850710445036E-16));
#471=CARTESIAN_POINT('',(-80.9609520212918,15.,5.46850710445036E-16));
#472=CARTESIAN_POINT('Origin',(-80.9609520212918,-1.78163271162644E-16,
5.84123819022363E-16));
#473=CARTESIAN_POINT('',(-81.0973212124968,-19.4881093628933,4.15639728704253));
#474=CARTESIAN_POINT('Origin',(-81.0973212124968,-1.63001699096242E-16,
5.88154823838214E-16));
#475=CARTESIAN_POINT('Origin',(-59.,13.45,0.));
#476=CARTESIAN_POINT('',(-59.,13.45,0.));
#477=CARTESIAN_POINT('Origin',(-59.,0.,0.));
#478=CARTESIAN_POINT('',(-59.0000000000001,12.7140487681534,-2.71163491661735));
#479=CARTESIAN_POINT('Origin',(-59.0000000000001,3.09725101217213E-14,1.72563323017096E-30));
#480=CARTESIAN_POINT('Origin',(-22.5,15.65,0.));
#481=CARTESIAN_POINT('',(-22.5,13.4382817644926,0.));
#482=CARTESIAN_POINT('Origin',(-22.5,0.,0.));
#483=CARTESIAN_POINT('',(-22.5,12.65,0.));
#484=CARTESIAN_POINT('Origin',(-22.5,0.,0.));
#485=CARTESIAN_POINT('Origin',(-30.,13.4382817644926,0.));
#486=CARTESIAN_POINT('',(-30.,-13.45,1.64714994485319E-15));
#487=CARTESIAN_POINT('Origin',(-30.,0.,0.));
#488=CARTESIAN_POINT('',(-30.,13.4382817644926,0.));
#489=CARTESIAN_POINT('Origin',(-30.,0.,0.));
#490=CARTESIAN_POINT('Origin',(-26.25,0.,0.));
#491=CARTESIAN_POINT('Origin',(-15.,15.65,0.));
#492=CARTESIAN_POINT('',(-15.,13.4382817644926,0.));
#493=CARTESIAN_POINT('Origin',(-15.,0.,0.));
#494=CARTESIAN_POINT('',(-15.,12.65,0.));
#495=CARTESIAN_POINT('Origin',(-15.,0.,0.));
#496=CARTESIAN_POINT('Origin',(-18.75,0.,0.));
#497=CARTESIAN_POINT('Origin',(-7.5,15.65,0.));
#498=CARTESIAN_POINT('',(-7.5,13.4382817644926,0.));
#499=CARTESIAN_POINT('Origin',(-7.5,0.,0.));
#500=CARTESIAN_POINT('',(-7.5,12.65,0.));
#501=CARTESIAN_POINT('Origin',(-7.5,0.,0.));
#502=CARTESIAN_POINT('Origin',(-11.25,0.,0.));
#503=CARTESIAN_POINT('Origin',(-3.75,0.,0.));
#504=CARTESIAN_POINT('',(0.,12.65,0.));
#505=CARTESIAN_POINT('Origin',(-2.22044604925031E-15,0.,0.));
#506=CARTESIAN_POINT('Origin',(-29.5,0.,0.));
#507=CARTESIAN_POINT('Origin',(-2.13088543051639E-15,11.6,0.));
#508=CARTESIAN_POINT('',(-2.13088543051639E-15,11.6,0.));
#509=CARTESIAN_POINT('Origin',(0.,0.,0.));
#510=CARTESIAN_POINT('Origin',(-29.5,0.,0.));
#511=CARTESIAN_POINT('',(-59.,11.6,0.));
#512=CARTESIAN_POINT('Origin',(-59.0000000000001,0.,0.));
#513=CARTESIAN_POINT('Origin',(-69.86229660636,3.21801838737528E-14,3.21084033310954E-16));
#514=CARTESIAN_POINT('',(-70.1507581448215,13.9808347669272,-2.98181330029332));
#515=CARTESIAN_POINT('Origin',(-70.1507581448215,3.2668713637841E-14,2.46980887988102E-15));
#516=CARTESIAN_POINT('',(-72.3016391725207,15.8741891699862,-3.38562533550637));
#517=CARTESIAN_POINT('Origin',(-72.3016391725207,3.29696651959335E-14,2.82322414419021E-15));
#518=CARTESIAN_POINT('Origin',(-65.4565857850725,3.16903554782739E-14,1.90853433708986E-16));
#519=CARTESIAN_POINT('Origin',(-72.9565857850725,3.25242079745252E-14,4.1254966767319E-16));
#520=CARTESIAN_POINT('',(-74.0000000000001,23.2764892832346,-4.96437777042253));
#521=CARTESIAN_POINT('Origin',(-74.0000000000001,3.26402151142241E-14,4.43392467928409E-16));
#522=CARTESIAN_POINT('Origin',(-59.0000000000001,12.7140487681534,-2.71163491661735));
#523=CARTESIAN_POINT('',(-59.0000000000001,11.2470431410588,-2.39875396469996));
#524=CARTESIAN_POINT('Origin',(-59.0000000000001,3.09725101217213E-14,1.72563323017096E-30));
#525=CARTESIAN_POINT('Origin',(-74.6350852961086,3.27108241088231E-14,4.62165270380851E-16));
#526=CARTESIAN_POINT('',(-75.2701705922172,25.4280975363067,-5.4232698332347));
#527=CARTESIAN_POINT('Origin',(-75.2701705922172,3.27814331034222E-14,4.80938072833293E-16));
#528=CARTESIAN_POINT('Origin',(-81.0000000000001,3.34184774440587E-14,6.50308952961666E-16));
#529=CARTESIAN_POINT('',(-86.7298294077829,25.4280975363067,-5.4232698332347));
#530=CARTESIAN_POINT('Origin',(-86.7298294077829,3.40555217846953E-14,8.19679833090039E-16));
#531=CARTESIAN_POINT('Origin',(-87.3649147038915,3.41261307792943E-14,8.38452635542481E-16));
#532=CARTESIAN_POINT('',(-88.0000000000001,23.2764892832346,-4.96437777042253));
#533=CARTESIAN_POINT('Origin',(-88.0000000000001,3.41967397738934E-14,8.57225437994923E-16));
#534=CARTESIAN_POINT('Origin',(-88.0000000000001,21.3204817804418,-4.54720316786602));
#535=CARTESIAN_POINT('',(-88.0000000000001,21.3204817804418,-4.54720316786602));
#536=CARTESIAN_POINT('Origin',(-88.0000000000001,3.41967397738934E-14,8.57225437994923E-16));
#537=CARTESIAN_POINT('Origin',(-84.5000000000001,3.3807608608976E-14,7.53767195478295E-16));
#538=CARTESIAN_POINT('Origin',(-79.2500000000001,3.32239118616001E-14,5.98579831703352E-16));
#539=CARTESIAN_POINT('',(-81.0000000000001,14.6700562709462,-3.12880951917386));
#540=CARTESIAN_POINT('Origin',(-81.0000000000001,3.34184774440587E-14,6.50308952961666E-16));
#541=CARTESIAN_POINT('Origin',(-81.0000000000001,12.7140487681534,-2.71163491661735));
#542=CARTESIAN_POINT('',(-81.0000000000001,12.7140487681534,-2.71163491661735));
#543=CARTESIAN_POINT('Origin',(-81.0000000000001,3.34184774440587E-14,6.50308952961666E-16));
#544=CARTESIAN_POINT('Origin',(-70.0000000000001,3.219549378289E-14,3.25154476480834E-16));
#545=UNCERTAINTY_MEASURE_WITH_UNIT(LENGTH_MEASURE(0.01),#549,
'DISTANCE_ACCURACY_VALUE',
'Maximum model space distance between geometric entities at asserted c
onnectivities');
#546=UNCERTAINTY_MEASURE_WITH_UNIT(LENGTH_MEASURE(1.E-6),#549,
'DISTANCE_ACCURACY_VALUE',
'Maximum model space distance between geometric entities at asserted c
onnectivities');
#547=(
GEOMETRIC_REPRESENTATION_CONTEXT(3)
GLOBAL_UNCERTAINTY_ASSIGNED_CONTEXT((#545))
GLOBAL_UNIT_ASSIGNED_CONTEXT((#549,#552,#550))
REPRESENTATION_CONTEXT('','3D')
);
#548=(
GEOMETRIC_REPRESENTATION_CONTEXT(3)
GLOBAL_UNCERTAINTY_ASSIGNED_CONTEXT((#546))
GLOBAL_UNIT_ASSIGNED_CONTEXT((#549,#552,#550))
REPRESENTATION_CONTEXT('','3D')
);
#549=(
LENGTH_UNIT()
NAMED_UNIT(*)
SI_UNIT(.MILLI.,.METRE.)
);
#550=(
NAMED_UNIT(*)
SI_UNIT($,.STERADIAN.)
SOLID_ANGLE_UNIT()
);
#551=DIMENSIONAL_EXPONENTS(0.,0.,0.,0.,0.,0.,0.);
#552=(
CONVERSION_BASED_UNIT('degree',#554)
NAMED_UNIT(#551)
PLANE_ANGLE_UNIT()
);
#553=(
NAMED_UNIT(*)
PLANE_ANGLE_UNIT()
SI_UNIT($,.RADIAN.)
);
#554=PLANE_ANGLE_MEASURE_WITH_UNIT(PLANE_ANGLE_MEASURE(0.01745329252),#553);
#555=SHAPE_DEFINITION_REPRESENTATION(#556,#557);
#556=PRODUCT_DEFINITION_SHAPE('',$,#559);
#557=SHAPE_REPRESENTATION('',(#316),#547);
#558=DESIGN_CONTEXT('part definition',#563,'design');
#559=PRODUCT_DEFINITION('26010025000','26010025000',#560,#558);
#560=PRODUCT_DEFINITION_FORMATION('',$,#565);
#561=PRODUCT_RELATED_PRODUCT_CATEGORY('26010025000','26010025000',(#565));
#562=APPLICATION_PROTOCOL_DEFINITION('international standard',
'ap203_configuration_controlled_3d_design_of_mechanical_parts_and_asse
mblies_mim_lf',2004,#563);
#563=APPLICATION_CONTEXT(
'Configuration Controlled 3D Design of Mechanical Parts and Assemblies');
#564=MECHANICAL_CONTEXT('part definition',#563,'mechanical');
#565=PRODUCT('26010025000','26010025000',$,(#564));
#566=PRESENTATION_STYLE_ASSIGNMENT((#568));
#567=PRESENTATION_STYLE_ASSIGNMENT((#569));
#568=SURFACE_STYLE_USAGE(.BOTH.,#570);
#569=SURFACE_STYLE_USAGE(.BOTH.,#571);
#570=SURFACE_SIDE_STYLE($,(#572));
#571=SURFACE_SIDE_STYLE($,(#573));
#572=SURFACE_STYLE_FILL_AREA(#574);
#573=SURFACE_STYLE_FILL_AREA(#575);
#574=FILL_AREA_STYLE($,(#576));
#575=FILL_AREA_STYLE($,(#577));
#576=FILL_AREA_STYLE_COLOUR($,#578);
#577=FILL_AREA_STYLE_COLOUR($,#579);
#578=COLOUR_RGB('',0.745098039215686,0.737254901960784,0.729411764705882);
#579=COLOUR_RGB('',0.,0.6,0.8);
ENDSEC;
END-ISO-10303-21;
