ISO-10303-21;
HEADER;
/* Generated by software containing ST-Developer
 * from STEP Tools, Inc. (www.steptools.com) 
 */

FILE_DESCRIPTION(
/* description */ (''),
/* implementation_level */ '2;1');

FILE_NAME(
/* name */ 
'C:\\Vault_Workspace\\DATA\\Katalog Bupospol\\2 Potrubn\X\ED d\X\EDly\\
2.6 Hadicov\X\E9 n\X\E1stavce\\26010\\26010\\26010032000.stp',
/* time_stamp */ '2016-03-08T11:17:09+01:00',
/* author */ ('Struska'),
/* organization */ ('BUPOSPOL'),
/* preprocessor_version */ 'ST-DEVELOPER v15.6',
/* originating_system */ 'Autodesk Inventor 2015',
/* authorisation */ '');

FILE_SCHEMA (('CONFIG_CONTROL_DESIGN'));
ENDSEC;

DATA;
#10=MECHANICAL_DESIGN_GEOMETRIC_PRESENTATION_REPRESENTATION('',(#306,#309,
#305,#308,#310,#311,#304,#307,#292,#294,#303,#290,#296,#302,#291,#300,#289,
#288,#299,#298,#295,#293,#286,#284,#285,#287,#301,#297),#590);
#11=SHAPE_REPRESENTATION_RELATIONSHIP('SRR','None',#599,#12);
#12=ADVANCED_BREP_SHAPE_REPRESENTATION($,(#13),#589);
#13=MANIFOLD_SOLID_BREP('T\X2\011B\X0\leso1',#339);
#14=CYLINDRICAL_SURFACE('',#368,17.);
#15=CYLINDRICAL_SURFACE('',#371,15.2);
#16=CYLINDRICAL_SURFACE('',#383,29.);
#17=CYLINDRICAL_SURFACE('',#390,18.);
#18=CONICAL_SURFACE('',#353,16.5941408822463,6.00000000000001);
#19=CONICAL_SURFACE('',#357,16.5941408822463,6.00000000000001);
#20=CONICAL_SURFACE('',#361,16.5941408822463,6.00000000000001);
#21=CONICAL_SURFACE('',#365,16.5941408822463,6.00000000000001);
#22=CONICAL_SURFACE('',#366,16.5941408822463,6.00000000000001);
#23=CONICAL_SURFACE('',#376,17.,3.58332169847197);
#24=CONICAL_SURFACE('',#377,22.15,77.6791076230577);
#25=CONICAL_SURFACE('',#381,27.9,60.);
#26=CONICAL_SURFACE('',#385,27.9,60.);
#27=CONICAL_SURFACE('',#389,23.8375,14.995079129176);
#28=CONICAL_SURFACE('',#394,15.5,2.29061004263853);
#29=PLANE('',#344);
#30=PLANE('',#347);
#31=PLANE('',#350);
#32=PLANE('',#354);
#33=PLANE('',#358);
#34=PLANE('',#362);
#35=PLANE('',#369);
#36=PLANE('',#379);
#37=PLANE('',#387);
#38=PLANE('',#392);
#39=FACE_BOUND('',#94,.T.);
#40=FACE_BOUND('',#96,.T.);
#41=FACE_BOUND('',#98,.T.);
#42=FACE_BOUND('',#100,.T.);
#43=FACE_BOUND('',#102,.T.);
#44=FACE_BOUND('',#104,.T.);
#45=FACE_BOUND('',#106,.T.);
#46=FACE_BOUND('',#108,.T.);
#47=FACE_BOUND('',#110,.T.);
#48=FACE_BOUND('',#112,.T.);
#49=FACE_BOUND('',#114,.T.);
#50=FACE_BOUND('',#116,.T.);
#51=FACE_BOUND('',#118,.T.);
#52=FACE_BOUND('',#120,.T.);
#53=FACE_BOUND('',#122,.T.);
#54=FACE_BOUND('',#124,.T.);
#55=FACE_BOUND('',#126,.T.);
#56=FACE_BOUND('',#128,.T.);
#57=FACE_BOUND('',#130,.T.);
#58=FACE_BOUND('',#132,.T.);
#59=FACE_BOUND('',#134,.T.);
#60=FACE_BOUND('',#136,.T.);
#61=FACE_BOUND('',#138,.T.);
#62=FACE_BOUND('',#140,.T.);
#63=FACE_BOUND('',#142,.T.);
#64=FACE_BOUND('',#144,.T.);
#65=FACE_BOUND('',#146,.T.);
#66=FACE_OUTER_BOUND('',#93,.T.);
#67=FACE_OUTER_BOUND('',#95,.T.);
#68=FACE_OUTER_BOUND('',#97,.T.);
#69=FACE_OUTER_BOUND('',#99,.T.);
#70=FACE_OUTER_BOUND('',#101,.T.);
#71=FACE_OUTER_BOUND('',#103,.T.);
#72=FACE_OUTER_BOUND('',#105,.T.);
#73=FACE_OUTER_BOUND('',#107,.T.);
#74=FACE_OUTER_BOUND('',#109,.T.);
#75=FACE_OUTER_BOUND('',#111,.T.);
#76=FACE_OUTER_BOUND('',#113,.T.);
#77=FACE_OUTER_BOUND('',#115,.T.);
#78=FACE_OUTER_BOUND('',#117,.T.);
#79=FACE_OUTER_BOUND('',#119,.T.);
#80=FACE_OUTER_BOUND('',#121,.T.);
#81=FACE_OUTER_BOUND('',#123,.T.);
#82=FACE_OUTER_BOUND('',#125,.T.);
#83=FACE_OUTER_BOUND('',#127,.T.);
#84=FACE_OUTER_BOUND('',#129,.T.);
#85=FACE_OUTER_BOUND('',#131,.T.);
#86=FACE_OUTER_BOUND('',#133,.T.);
#87=FACE_OUTER_BOUND('',#135,.T.);
#88=FACE_OUTER_BOUND('',#137,.T.);
#89=FACE_OUTER_BOUND('',#139,.T.);
#90=FACE_OUTER_BOUND('',#141,.T.);
#91=FACE_OUTER_BOUND('',#143,.T.);
#92=FACE_OUTER_BOUND('',#145,.T.);
#93=EDGE_LOOP('',(#228));
#94=EDGE_LOOP('',(#229));
#95=EDGE_LOOP('',(#230));
#96=EDGE_LOOP('',(#231));
#97=EDGE_LOOP('',(#232));
#98=EDGE_LOOP('',(#233));
#99=EDGE_LOOP('',(#234));
#100=EDGE_LOOP('',(#235));
#101=EDGE_LOOP('',(#236));
#102=EDGE_LOOP('',(#237));
#103=EDGE_LOOP('',(#238));
#104=EDGE_LOOP('',(#239));
#105=EDGE_LOOP('',(#240));
#106=EDGE_LOOP('',(#241));
#107=EDGE_LOOP('',(#242));
#108=EDGE_LOOP('',(#243));
#109=EDGE_LOOP('',(#244));
#110=EDGE_LOOP('',(#245));
#111=EDGE_LOOP('',(#246));
#112=EDGE_LOOP('',(#247));
#113=EDGE_LOOP('',(#248));
#114=EDGE_LOOP('',(#249));
#115=EDGE_LOOP('',(#250));
#116=EDGE_LOOP('',(#251));
#117=EDGE_LOOP('',(#252));
#118=EDGE_LOOP('',(#253));
#119=EDGE_LOOP('',(#254));
#120=EDGE_LOOP('',(#255));
#121=EDGE_LOOP('',(#256));
#122=EDGE_LOOP('',(#257));
#123=EDGE_LOOP('',(#258));
#124=EDGE_LOOP('',(#259));
#125=EDGE_LOOP('',(#260));
#126=EDGE_LOOP('',(#261));
#127=EDGE_LOOP('',(#262));
#128=EDGE_LOOP('',(#263));
#129=EDGE_LOOP('',(#264));
#130=EDGE_LOOP('',(#265));
#131=EDGE_LOOP('',(#266));
#132=EDGE_LOOP('',(#267));
#133=EDGE_LOOP('',(#268));
#134=EDGE_LOOP('',(#269));
#135=EDGE_LOOP('',(#270));
#136=EDGE_LOOP('',(#271));
#137=EDGE_LOOP('',(#272));
#138=EDGE_LOOP('',(#273));
#139=EDGE_LOOP('',(#274));
#140=EDGE_LOOP('',(#275));
#141=EDGE_LOOP('',(#276));
#142=EDGE_LOOP('',(#277));
#143=EDGE_LOOP('',(#278));
#144=EDGE_LOOP('',(#279));
#145=EDGE_LOOP('',(#280));
#146=EDGE_LOOP('',(#281));
#147=CIRCLE('',#342,18.);
#148=CIRCLE('',#343,22.9261785104969);
#149=CIRCLE('',#345,17.);
#150=CIRCLE('',#346,16.5);
#151=CIRCLE('',#348,16.9882817644926);
#152=CIRCLE('',#349,16.2);
#153=CIRCLE('',#351,17.);
#154=CIRCLE('',#352,16.9882817644926);
#155=CIRCLE('',#355,16.9882817644926);
#156=CIRCLE('',#356,16.2);
#157=CIRCLE('',#359,16.9882817644926);
#158=CIRCLE('',#360,16.2);
#159=CIRCLE('',#363,16.9882817644926);
#160=CIRCLE('',#364,16.2);
#161=CIRCLE('',#367,16.2);
#162=CIRCLE('',#370,15.2);
#163=CIRCLE('',#372,15.2);
#164=CIRCLE('',#374,17.382052277951);
#165=CIRCLE('',#375,19.3436980808649);
#166=CIRCLE('',#378,26.8);
#167=CIRCLE('',#380,15.);
#168=CIRCLE('',#382,29.);
#169=CIRCLE('',#384,29.);
#170=CIRCLE('',#386,26.8);
#171=CIRCLE('',#388,24.775);
#172=CIRCLE('',#391,18.);
#173=CIRCLE('',#393,16.);
#174=VERTEX_POINT('',#507);
#175=VERTEX_POINT('',#509);
#176=VERTEX_POINT('',#512);
#177=VERTEX_POINT('',#514);
#178=VERTEX_POINT('',#517);
#179=VERTEX_POINT('',#519);
#180=VERTEX_POINT('',#522);
#181=VERTEX_POINT('',#524);
#182=VERTEX_POINT('',#528);
#183=VERTEX_POINT('',#530);
#184=VERTEX_POINT('',#534);
#185=VERTEX_POINT('',#536);
#186=VERTEX_POINT('',#540);
#187=VERTEX_POINT('',#542);
#188=VERTEX_POINT('',#546);
#189=VERTEX_POINT('',#550);
#190=VERTEX_POINT('',#553);
#191=VERTEX_POINT('',#556);
#192=VERTEX_POINT('',#558);
#193=VERTEX_POINT('',#562);
#194=VERTEX_POINT('',#565);
#195=VERTEX_POINT('',#568);
#196=VERTEX_POINT('',#571);
#197=VERTEX_POINT('',#574);
#198=VERTEX_POINT('',#577);
#199=VERTEX_POINT('',#581);
#200=VERTEX_POINT('',#584);
#201=EDGE_CURVE('',#174,#174,#147,.T.);
#202=EDGE_CURVE('',#175,#175,#148,.T.);
#203=EDGE_CURVE('',#176,#176,#149,.T.);
#204=EDGE_CURVE('',#177,#177,#150,.T.);
#205=EDGE_CURVE('',#178,#178,#151,.T.);
#206=EDGE_CURVE('',#179,#179,#152,.T.);
#207=EDGE_CURVE('',#180,#180,#153,.T.);
#208=EDGE_CURVE('',#181,#181,#154,.T.);
#209=EDGE_CURVE('',#182,#182,#155,.T.);
#210=EDGE_CURVE('',#183,#183,#156,.T.);
#211=EDGE_CURVE('',#184,#184,#157,.T.);
#212=EDGE_CURVE('',#185,#185,#158,.T.);
#213=EDGE_CURVE('',#186,#186,#159,.T.);
#214=EDGE_CURVE('',#187,#187,#160,.T.);
#215=EDGE_CURVE('',#188,#188,#161,.T.);
#216=EDGE_CURVE('',#189,#189,#162,.T.);
#217=EDGE_CURVE('',#190,#190,#163,.T.);
#218=EDGE_CURVE('',#191,#191,#164,.T.);
#219=EDGE_CURVE('',#192,#192,#165,.T.);
#220=EDGE_CURVE('',#193,#193,#166,.T.);
#221=EDGE_CURVE('',#194,#194,#167,.T.);
#222=EDGE_CURVE('',#195,#195,#168,.T.);
#223=EDGE_CURVE('',#196,#196,#169,.T.);
#224=EDGE_CURVE('',#197,#197,#170,.T.);
#225=EDGE_CURVE('',#198,#198,#171,.T.);
#226=EDGE_CURVE('',#199,#199,#172,.T.);
#227=EDGE_CURVE('',#200,#200,#173,.T.);
#228=ORIENTED_EDGE('',*,*,#201,.F.);
#229=ORIENTED_EDGE('',*,*,#202,.F.);
#230=ORIENTED_EDGE('',*,*,#203,.F.);
#231=ORIENTED_EDGE('',*,*,#204,.F.);
#232=ORIENTED_EDGE('',*,*,#205,.T.);
#233=ORIENTED_EDGE('',*,*,#206,.F.);
#234=ORIENTED_EDGE('',*,*,#207,.F.);
#235=ORIENTED_EDGE('',*,*,#208,.T.);
#236=ORIENTED_EDGE('',*,*,#206,.T.);
#237=ORIENTED_EDGE('',*,*,#208,.F.);
#238=ORIENTED_EDGE('',*,*,#209,.T.);
#239=ORIENTED_EDGE('',*,*,#210,.F.);
#240=ORIENTED_EDGE('',*,*,#210,.T.);
#241=ORIENTED_EDGE('',*,*,#205,.F.);
#242=ORIENTED_EDGE('',*,*,#211,.T.);
#243=ORIENTED_EDGE('',*,*,#212,.F.);
#244=ORIENTED_EDGE('',*,*,#212,.T.);
#245=ORIENTED_EDGE('',*,*,#209,.F.);
#246=ORIENTED_EDGE('',*,*,#213,.T.);
#247=ORIENTED_EDGE('',*,*,#214,.F.);
#248=ORIENTED_EDGE('',*,*,#214,.T.);
#249=ORIENTED_EDGE('',*,*,#211,.F.);
#250=ORIENTED_EDGE('',*,*,#215,.F.);
#251=ORIENTED_EDGE('',*,*,#213,.F.);
#252=ORIENTED_EDGE('',*,*,#207,.T.);
#253=ORIENTED_EDGE('',*,*,#203,.T.);
#254=ORIENTED_EDGE('',*,*,#215,.T.);
#255=ORIENTED_EDGE('',*,*,#216,.F.);
#256=ORIENTED_EDGE('',*,*,#216,.T.);
#257=ORIENTED_EDGE('',*,*,#217,.F.);
#258=ORIENTED_EDGE('',*,*,#218,.T.);
#259=ORIENTED_EDGE('',*,*,#219,.T.);
#260=ORIENTED_EDGE('',*,*,#204,.T.);
#261=ORIENTED_EDGE('',*,*,#218,.F.);
#262=ORIENTED_EDGE('',*,*,#220,.F.);
#263=ORIENTED_EDGE('',*,*,#219,.F.);
#264=ORIENTED_EDGE('',*,*,#217,.T.);
#265=ORIENTED_EDGE('',*,*,#221,.T.);
#266=ORIENTED_EDGE('',*,*,#220,.T.);
#267=ORIENTED_EDGE('',*,*,#222,.F.);
#268=ORIENTED_EDGE('',*,*,#222,.T.);
#269=ORIENTED_EDGE('',*,*,#223,.F.);
#270=ORIENTED_EDGE('',*,*,#223,.T.);
#271=ORIENTED_EDGE('',*,*,#224,.F.);
#272=ORIENTED_EDGE('',*,*,#224,.T.);
#273=ORIENTED_EDGE('',*,*,#225,.F.);
#274=ORIENTED_EDGE('',*,*,#202,.T.);
#275=ORIENTED_EDGE('',*,*,#225,.T.);
#276=ORIENTED_EDGE('',*,*,#201,.T.);
#277=ORIENTED_EDGE('',*,*,#226,.F.);
#278=ORIENTED_EDGE('',*,*,#226,.T.);
#279=ORIENTED_EDGE('',*,*,#227,.F.);
#280=ORIENTED_EDGE('',*,*,#227,.T.);
#281=ORIENTED_EDGE('',*,*,#221,.F.);
#282=TOROIDAL_SURFACE('',#341,20.5,2.8);
#283=TOROIDAL_SURFACE('',#373,19.8771646877434,2.5);
#284=STYLED_ITEM('',(#609),#312);
#285=STYLED_ITEM('',(#608),#313);
#286=STYLED_ITEM('',(#608),#314);
#287=STYLED_ITEM('',(#608),#315);
#288=STYLED_ITEM('',(#608),#316);
#289=STYLED_ITEM('',(#608),#317);
#290=STYLED_ITEM('',(#608),#318);
#291=STYLED_ITEM('',(#608),#319);
#292=STYLED_ITEM('',(#608),#320);
#293=STYLED_ITEM('',(#608),#321);
#294=STYLED_ITEM('',(#608),#322);
#295=STYLED_ITEM('',(#608),#323);
#296=STYLED_ITEM('',(#608),#324);
#297=STYLED_ITEM('',(#608),#325);
#298=STYLED_ITEM('',(#608),#326);
#299=STYLED_ITEM('',(#608),#327);
#300=STYLED_ITEM('',(#608),#328);
#301=STYLED_ITEM('',(#608),#329);
#302=STYLED_ITEM('',(#608),#330);
#303=STYLED_ITEM('',(#608),#331);
#304=STYLED_ITEM('',(#608),#332);
#305=STYLED_ITEM('',(#608),#333);
#306=STYLED_ITEM('',(#608),#334);
#307=STYLED_ITEM('',(#608),#335);
#308=STYLED_ITEM('',(#608),#336);
#309=STYLED_ITEM('',(#608),#337);
#310=STYLED_ITEM('',(#608),#338);
#311=STYLED_ITEM('',(#608),#13);
#312=ADVANCED_FACE('',(#66,#39),#282,.T.);
#313=ADVANCED_FACE('',(#67,#40),#29,.T.);
#314=ADVANCED_FACE('',(#68,#41),#30,.F.);
#315=ADVANCED_FACE('',(#69,#42),#31,.F.);
#316=ADVANCED_FACE('',(#70,#43),#18,.T.);
#317=ADVANCED_FACE('',(#71,#44),#32,.F.);
#318=ADVANCED_FACE('',(#72,#45),#19,.T.);
#319=ADVANCED_FACE('',(#73,#46),#33,.F.);
#320=ADVANCED_FACE('',(#74,#47),#20,.T.);
#321=ADVANCED_FACE('',(#75,#48),#34,.F.);
#322=ADVANCED_FACE('',(#76,#49),#21,.T.);
#323=ADVANCED_FACE('',(#77,#50),#22,.T.);
#324=ADVANCED_FACE('',(#78,#51),#14,.T.);
#325=ADVANCED_FACE('',(#79,#52),#35,.T.);
#326=ADVANCED_FACE('',(#80,#53),#15,.F.);
#327=ADVANCED_FACE('',(#81,#54),#283,.F.);
#328=ADVANCED_FACE('',(#82,#55),#23,.T.);
#329=ADVANCED_FACE('',(#83,#56),#24,.T.);
#330=ADVANCED_FACE('',(#84,#57),#36,.T.);
#331=ADVANCED_FACE('',(#85,#58),#25,.T.);
#332=ADVANCED_FACE('',(#86,#59),#16,.T.);
#333=ADVANCED_FACE('',(#87,#60),#26,.T.);
#334=ADVANCED_FACE('',(#88,#61),#37,.T.);
#335=ADVANCED_FACE('',(#89,#62),#27,.F.);
#336=ADVANCED_FACE('',(#90,#63),#17,.T.);
#337=ADVANCED_FACE('',(#91,#64),#38,.T.);
#338=ADVANCED_FACE('',(#92,#65),#28,.F.);
#339=CLOSED_SHELL('',(#312,#313,#314,#315,#316,#317,#318,#319,#320,#321,
#322,#323,#324,#325,#326,#327,#328,#329,#330,#331,#332,#333,#334,#335,#336,
#337,#338));
#340=AXIS2_PLACEMENT_3D('placement',#505,#395,#396);
#341=AXIS2_PLACEMENT_3D('',#506,#397,#398);
#342=AXIS2_PLACEMENT_3D('',#508,#399,#400);
#343=AXIS2_PLACEMENT_3D('',#510,#401,#402);
#344=AXIS2_PLACEMENT_3D('',#511,#403,#404);
#345=AXIS2_PLACEMENT_3D('',#513,#405,#406);
#346=AXIS2_PLACEMENT_3D('',#515,#407,#408);
#347=AXIS2_PLACEMENT_3D('',#516,#409,#410);
#348=AXIS2_PLACEMENT_3D('',#518,#411,#412);
#349=AXIS2_PLACEMENT_3D('',#520,#413,#414);
#350=AXIS2_PLACEMENT_3D('',#521,#415,#416);
#351=AXIS2_PLACEMENT_3D('',#523,#417,#418);
#352=AXIS2_PLACEMENT_3D('',#525,#419,#420);
#353=AXIS2_PLACEMENT_3D('',#526,#421,#422);
#354=AXIS2_PLACEMENT_3D('',#527,#423,#424);
#355=AXIS2_PLACEMENT_3D('',#529,#425,#426);
#356=AXIS2_PLACEMENT_3D('',#531,#427,#428);
#357=AXIS2_PLACEMENT_3D('',#532,#429,#430);
#358=AXIS2_PLACEMENT_3D('',#533,#431,#432);
#359=AXIS2_PLACEMENT_3D('',#535,#433,#434);
#360=AXIS2_PLACEMENT_3D('',#537,#435,#436);
#361=AXIS2_PLACEMENT_3D('',#538,#437,#438);
#362=AXIS2_PLACEMENT_3D('',#539,#439,#440);
#363=AXIS2_PLACEMENT_3D('',#541,#441,#442);
#364=AXIS2_PLACEMENT_3D('',#543,#443,#444);
#365=AXIS2_PLACEMENT_3D('',#544,#445,#446);
#366=AXIS2_PLACEMENT_3D('',#545,#447,#448);
#367=AXIS2_PLACEMENT_3D('',#547,#449,#450);
#368=AXIS2_PLACEMENT_3D('',#548,#451,#452);
#369=AXIS2_PLACEMENT_3D('',#549,#453,#454);
#370=AXIS2_PLACEMENT_3D('',#551,#455,#456);
#371=AXIS2_PLACEMENT_3D('',#552,#457,#458);
#372=AXIS2_PLACEMENT_3D('',#554,#459,#460);
#373=AXIS2_PLACEMENT_3D('',#555,#461,#462);
#374=AXIS2_PLACEMENT_3D('',#557,#463,#464);
#375=AXIS2_PLACEMENT_3D('',#559,#465,#466);
#376=AXIS2_PLACEMENT_3D('',#560,#467,#468);
#377=AXIS2_PLACEMENT_3D('',#561,#469,#470);
#378=AXIS2_PLACEMENT_3D('',#563,#471,#472);
#379=AXIS2_PLACEMENT_3D('',#564,#473,#474);
#380=AXIS2_PLACEMENT_3D('',#566,#475,#476);
#381=AXIS2_PLACEMENT_3D('',#567,#477,#478);
#382=AXIS2_PLACEMENT_3D('',#569,#479,#480);
#383=AXIS2_PLACEMENT_3D('',#570,#481,#482);
#384=AXIS2_PLACEMENT_3D('',#572,#483,#484);
#385=AXIS2_PLACEMENT_3D('',#573,#485,#486);
#386=AXIS2_PLACEMENT_3D('',#575,#487,#488);
#387=AXIS2_PLACEMENT_3D('',#576,#489,#490);
#388=AXIS2_PLACEMENT_3D('',#578,#491,#492);
#389=AXIS2_PLACEMENT_3D('',#579,#493,#494);
#390=AXIS2_PLACEMENT_3D('',#580,#495,#496);
#391=AXIS2_PLACEMENT_3D('',#582,#497,#498);
#392=AXIS2_PLACEMENT_3D('',#583,#499,#500);
#393=AXIS2_PLACEMENT_3D('',#585,#501,#502);
#394=AXIS2_PLACEMENT_3D('',#586,#503,#504);
#395=DIRECTION('axis',(0.,0.,1.));
#396=DIRECTION('refdir',(1.,0.,0.));
#397=DIRECTION('center_axis',(1.,-6.76614037079071E-81,-3.08148791101958E-33));
#398=DIRECTION('ref_axis',(0.,0.,-1.));
#399=DIRECTION('center_axis',(-1.,1.11180332833518E-16,2.95594978618938E-17));
#400=DIRECTION('ref_axis',(1.02569046706529E-16,0.978003751396411,-0.208587301278258));
#401=DIRECTION('center_axis',(1.,-1.11180332833518E-16,-2.95594978618938E-17));
#402=DIRECTION('ref_axis',(1.02569046706529E-16,0.978003751396411,-0.208587301278258));
#403=DIRECTION('center_axis',(-1.,0.,0.));
#404=DIRECTION('ref_axis',(0.,0.,1.));
#405=DIRECTION('center_axis',(1.,0.,0.));
#406=DIRECTION('ref_axis',(0.,0.,-1.));
#407=DIRECTION('center_axis',(-1.,1.11180332833518E-16,2.95594978618938E-17));
#408=DIRECTION('ref_axis',(5.21001053792883E-17,0.208587301278258,0.978003751396411));
#409=DIRECTION('center_axis',(1.,0.,0.));
#410=DIRECTION('ref_axis',(0.,0.,-1.));
#411=DIRECTION('center_axis',(-1.,0.,0.));
#412=DIRECTION('ref_axis',(0.,0.,1.));
#413=DIRECTION('center_axis',(-1.,0.,0.));
#414=DIRECTION('ref_axis',(0.,0.,1.));
#415=DIRECTION('center_axis',(-1.,0.,0.));
#416=DIRECTION('ref_axis',(0.,0.,1.));
#417=DIRECTION('center_axis',(-1.,0.,0.));
#418=DIRECTION('ref_axis',(0.,1.,0.));
#419=DIRECTION('center_axis',(-1.,0.,0.));
#420=DIRECTION('ref_axis',(0.,0.,1.));
#421=DIRECTION('center_axis',(-1.,0.,0.));
#422=DIRECTION('ref_axis',(0.,1.,0.));
#423=DIRECTION('center_axis',(1.,0.,0.));
#424=DIRECTION('ref_axis',(0.,0.,-1.));
#425=DIRECTION('center_axis',(-1.,0.,0.));
#426=DIRECTION('ref_axis',(0.,0.,1.));
#427=DIRECTION('center_axis',(-1.,0.,0.));
#428=DIRECTION('ref_axis',(0.,0.,1.));
#429=DIRECTION('center_axis',(-1.,0.,0.));
#430=DIRECTION('ref_axis',(0.,1.,0.));
#431=DIRECTION('center_axis',(1.,0.,0.));
#432=DIRECTION('ref_axis',(0.,0.,-1.));
#433=DIRECTION('center_axis',(-1.,0.,0.));
#434=DIRECTION('ref_axis',(0.,0.,1.));
#435=DIRECTION('center_axis',(-1.,0.,0.));
#436=DIRECTION('ref_axis',(0.,0.,1.));
#437=DIRECTION('center_axis',(-1.,0.,0.));
#438=DIRECTION('ref_axis',(0.,1.,0.));
#439=DIRECTION('center_axis',(1.,0.,0.));
#440=DIRECTION('ref_axis',(0.,0.,-1.));
#441=DIRECTION('center_axis',(-1.,0.,0.));
#442=DIRECTION('ref_axis',(0.,0.,1.));
#443=DIRECTION('center_axis',(-1.,0.,0.));
#444=DIRECTION('ref_axis',(0.,0.,1.));
#445=DIRECTION('center_axis',(-1.,0.,0.));
#446=DIRECTION('ref_axis',(0.,1.,0.));
#447=DIRECTION('center_axis',(-1.,0.,0.));
#448=DIRECTION('ref_axis',(0.,1.,0.));
#449=DIRECTION('center_axis',(1.,0.,0.));
#450=DIRECTION('ref_axis',(0.,1.,0.));
#451=DIRECTION('center_axis',(1.,0.,0.));
#452=DIRECTION('ref_axis',(0.,1.,0.));
#453=DIRECTION('center_axis',(1.,0.,0.));
#454=DIRECTION('ref_axis',(0.,0.,-1.));
#455=DIRECTION('center_axis',(1.,0.,0.));
#456=DIRECTION('ref_axis',(0.,0.,-1.));
#457=DIRECTION('center_axis',(1.,0.,0.));
#458=DIRECTION('ref_axis',(0.,1.,0.));
#459=DIRECTION('center_axis',(1.,-1.11180332833518E-16,-2.95594978618938E-17));
#460=DIRECTION('ref_axis',(0.,1.,0.));
#461=DIRECTION('center_axis',(-1.,1.11180332833518E-16,2.95594978618938E-17));
#462=DIRECTION('ref_axis',(0.,0.208587301278258,0.978003751396411));
#463=DIRECTION('center_axis',(-1.,1.11180332833518E-16,2.95594978618938E-17));
#464=DIRECTION('ref_axis',(-1.02569046706529E-16,-0.978003751396411,0.208587301278258));
#465=DIRECTION('center_axis',(1.,-1.11180332833518E-16,-2.95594978618938E-17));
#466=DIRECTION('ref_axis',(-1.02569046706529E-16,-0.978003751396411,0.208587301278258));
#467=DIRECTION('center_axis',(-1.,1.11180332833518E-16,2.95594978618938E-17));
#468=DIRECTION('ref_axis',(1.02569046706529E-16,0.978003751396411,-0.208587301278258));
#469=DIRECTION('center_axis',(-1.,1.11180332833518E-16,2.95594978618938E-17));
#470=DIRECTION('ref_axis',(1.02569046706529E-16,0.978003751396411,-0.208587301278258));
#471=DIRECTION('center_axis',(-1.,1.11180332833518E-16,2.95594978618938E-17));
#472=DIRECTION('ref_axis',(5.21001053792883E-17,0.208587301278258,0.978003751396411));
#473=DIRECTION('center_axis',(1.,-1.11180332833518E-16,-2.95594978618938E-17));
#474=DIRECTION('ref_axis',(0.,-0.208587301278258,-0.978003751396411));
#475=DIRECTION('center_axis',(-1.,1.11180332833518E-16,2.95594978618938E-17));
#476=DIRECTION('ref_axis',(5.21001053792883E-17,0.208587301278258,0.978003751396411));
#477=DIRECTION('center_axis',(-1.,1.11180332833518E-16,2.95594978618938E-17));
#478=DIRECTION('ref_axis',(1.02569046706529E-16,0.978003751396411,-0.208587301278258));
#479=DIRECTION('center_axis',(-1.,1.11180332833518E-16,2.95594978618938E-17));
#480=DIRECTION('ref_axis',(5.21001053792883E-17,0.208587301278258,0.978003751396411));
#481=DIRECTION('center_axis',(-1.,1.11180332833518E-16,2.95594978618938E-17));
#482=DIRECTION('ref_axis',(1.02569046706529E-16,0.978003751396411,-0.208587301278258));
#483=DIRECTION('center_axis',(-1.,1.11180332833518E-16,2.95594978618938E-17));
#484=DIRECTION('ref_axis',(5.21001053792883E-17,0.208587301278258,0.978003751396411));
#485=DIRECTION('center_axis',(1.,-1.11180332833518E-16,-2.95594978618938E-17));
#486=DIRECTION('ref_axis',(1.02569046706529E-16,0.978003751396411,-0.208587301278258));
#487=DIRECTION('center_axis',(-1.,1.11180332833518E-16,2.95594978618938E-17));
#488=DIRECTION('ref_axis',(5.21001053792883E-17,0.208587301278258,0.978003751396411));
#489=DIRECTION('center_axis',(-1.,1.11180332833518E-16,2.95594978618938E-17));
#490=DIRECTION('ref_axis',(0.,0.208587301278258,0.978003751396411));
#491=DIRECTION('center_axis',(-1.,1.11180332833518E-16,2.95594978618938E-17));
#492=DIRECTION('ref_axis',(5.21001053792883E-17,0.208587301278258,0.978003751396411));
#493=DIRECTION('center_axis',(-1.,1.11180332833518E-16,2.95594978618938E-17));
#494=DIRECTION('ref_axis',(1.02569046706529E-16,0.978003751396411,-0.208587301278258));
#495=DIRECTION('center_axis',(-1.,1.11180332833518E-16,2.95594978618938E-17));
#496=DIRECTION('ref_axis',(1.02569046706529E-16,0.978003751396411,-0.208587301278258));
#497=DIRECTION('center_axis',(-1.,1.11180332833518E-16,2.95594978618938E-17));
#498=DIRECTION('ref_axis',(5.21001053792883E-17,0.208587301278258,0.978003751396411));
#499=DIRECTION('center_axis',(-1.,1.11180332833518E-16,2.95594978618938E-17));
#500=DIRECTION('ref_axis',(0.,0.208587301278258,0.978003751396411));
#501=DIRECTION('center_axis',(-1.,1.11180332833518E-16,2.95594978618938E-17));
#502=DIRECTION('ref_axis',(5.21001053792883E-17,0.208587301278258,0.978003751396411));
#503=DIRECTION('center_axis',(-1.,1.11180332833518E-16,2.95594978618938E-17));
#504=DIRECTION('ref_axis',(1.02569046706529E-16,0.978003751396411,-0.208587301278258));
#505=CARTESIAN_POINT('',(0.,0.,0.));
#506=CARTESIAN_POINT('Origin',(-85.7,-5.54861536635698E-16,6.35529204030717E-16));
#507=CARTESIAN_POINT('',(-86.9609520212918,18.,6.35529204030717E-16));
#508=CARTESIAN_POINT('Origin',(-86.9609520212918,-4.14668471221374E-16,
6.72802312608044E-16));
#509=CARTESIAN_POINT('',(-87.097733105855,-22.4218885884497,4.78210970412812));
#510=CARTESIAN_POINT('Origin',(-87.097733105855,-3.99461104714307E-16,6.76845492784738E-16));
#511=CARTESIAN_POINT('Origin',(-62.,17.,0.));
#512=CARTESIAN_POINT('',(-62.,17.,0.));
#513=CARTESIAN_POINT('Origin',(-62.,0.,0.));
#514=CARTESIAN_POINT('',(-62.0000000000001,16.1370618980408,-3.44169047109125));
#515=CARTESIAN_POINT('Origin',(-62.0000000000001,3.04024639231621E-14,1.4791141972894E-30));
#516=CARTESIAN_POINT('Origin',(-30.,19.2,0.));
#517=CARTESIAN_POINT('',(-30.,16.9882817644926,0.));
#518=CARTESIAN_POINT('Origin',(-30.,0.,0.));
#519=CARTESIAN_POINT('',(-30.,16.2,0.));
#520=CARTESIAN_POINT('Origin',(-30.,0.,0.));
#521=CARTESIAN_POINT('Origin',(-37.5,16.9882817644926,0.));
#522=CARTESIAN_POINT('',(-37.5,-17.,2.0818995585505E-15));
#523=CARTESIAN_POINT('Origin',(-37.5,0.,0.));
#524=CARTESIAN_POINT('',(-37.5,16.9882817644926,0.));
#525=CARTESIAN_POINT('Origin',(-37.5,0.,0.));
#526=CARTESIAN_POINT('Origin',(-33.75,0.,0.));
#527=CARTESIAN_POINT('Origin',(-22.5,19.2,0.));
#528=CARTESIAN_POINT('',(-22.5,16.9882817644926,0.));
#529=CARTESIAN_POINT('Origin',(-22.5,0.,0.));
#530=CARTESIAN_POINT('',(-22.5,16.2,0.));
#531=CARTESIAN_POINT('Origin',(-22.5,0.,0.));
#532=CARTESIAN_POINT('Origin',(-26.25,0.,0.));
#533=CARTESIAN_POINT('Origin',(-15.,19.2,0.));
#534=CARTESIAN_POINT('',(-15.,16.9882817644926,0.));
#535=CARTESIAN_POINT('Origin',(-15.,0.,0.));
#536=CARTESIAN_POINT('',(-15.,16.2,0.));
#537=CARTESIAN_POINT('Origin',(-15.,0.,0.));
#538=CARTESIAN_POINT('Origin',(-18.75,0.,0.));
#539=CARTESIAN_POINT('Origin',(-7.5,19.2,0.));
#540=CARTESIAN_POINT('',(-7.50000000000001,16.9882817644926,0.));
#541=CARTESIAN_POINT('Origin',(-7.50000000000001,0.,0.));
#542=CARTESIAN_POINT('',(-7.5,16.2,0.));
#543=CARTESIAN_POINT('Origin',(-7.5,0.,0.));
#544=CARTESIAN_POINT('Origin',(-11.25,0.,0.));
#545=CARTESIAN_POINT('Origin',(-3.75,0.,0.));
#546=CARTESIAN_POINT('',(0.,16.2,0.));
#547=CARTESIAN_POINT('Origin',(-2.77555756156289E-15,0.,0.));
#548=CARTESIAN_POINT('Origin',(-31.,0.,0.));
#549=CARTESIAN_POINT('Origin',(-2.79219470205596E-15,15.2,0.));
#550=CARTESIAN_POINT('',(-2.79219470205596E-15,15.2,0.));
#551=CARTESIAN_POINT('Origin',(-4.44089209850063E-15,0.,0.));
#552=CARTESIAN_POINT('Origin',(-31.,0.,0.));
#553=CARTESIAN_POINT('',(-62.,15.2,0.));
#554=CARTESIAN_POINT('Origin',(-62.0000000000001,0.,0.));
#555=CARTESIAN_POINT('Origin',(-75.9289953427271,3.1951094261403E-14,4.11734108051671E-16));
#556=CARTESIAN_POINT('',(-76.0852453427271,16.9997123348046,-3.62567537533538));
#557=CARTESIAN_POINT('Origin',(-76.0852453427271,3.25234876563022E-14,3.01868319174812E-15));
#558=CARTESIAN_POINT('',(-78.3714149175229,18.9182092889654,-4.03484977942901));
#559=CARTESIAN_POINT('Origin',(-78.3714149175229,3.28403015160751E-14,3.37994636066709E-15));
#560=CARTESIAN_POINT('Origin',(-69.9843597113357,3.12901676933309E-14,2.36013663815819E-16));
#561=CARTESIAN_POINT('Origin',(-78.9843597113357,3.22907906888325E-14,5.02049144572864E-16));
#562=CARTESIAN_POINT('',(-80.0000000000001,26.2105005374239,-5.5901396742573));
#563=CARTESIAN_POINT('Origin',(-80.0000000000001,3.24037099141654E-14,5.32070961514091E-16));
#564=CARTESIAN_POINT('Origin',(-62.0000000000001,16.1370618980408,-3.44169047109125));
#565=CARTESIAN_POINT('',(-62.0000000000001,14.6700562709462,-3.12880951917386));
#566=CARTESIAN_POINT('Origin',(-62.0000000000001,3.04024639231621E-14,1.4791141972894E-30));
#567=CARTESIAN_POINT('Origin',(-80.6350852961087,3.24743189087644E-14,5.50843763966533E-16));
#568=CARTESIAN_POINT('',(-81.2701705922173,28.362108790496,-6.04903173706947));
#569=CARTESIAN_POINT('Origin',(-81.2701705922173,3.25449279033634E-14,5.69616566418975E-16));
#570=CARTESIAN_POINT('Origin',(-87.0000000000001,3.3181972244E-14,7.38987446547347E-16));
#571=CARTESIAN_POINT('',(-92.7298294077829,28.362108790496,-6.04903173706947));
#572=CARTESIAN_POINT('Origin',(-92.7298294077829,3.38190165846366E-14,9.0835832667572E-16));
#573=CARTESIAN_POINT('Origin',(-93.3649147038915,3.38896255792356E-14,9.27131129128162E-16));
#574=CARTESIAN_POINT('',(-94.0000000000001,26.2105005374239,-5.5901396742573));
#575=CARTESIAN_POINT('Origin',(-94.0000000000001,3.39602345738346E-14,9.45903931580604E-16));
#576=CARTESIAN_POINT('Origin',(-94.0000000000001,24.2300429408461,-5.16775038916883));
#577=CARTESIAN_POINT('',(-94.0000000000001,24.2300429408461,-5.16775038916883));
#578=CARTESIAN_POINT('Origin',(-94.0000000000001,3.39602345738346E-14,9.45903931580604E-16));
#579=CARTESIAN_POINT('Origin',(-90.5000000000001,3.35711034089173E-14,8.42445689063976E-16));
#580=CARTESIAN_POINT('Origin',(-85.2500000000001,3.29874066615413E-14,6.87258325289033E-16));
#581=CARTESIAN_POINT('',(-87.0000000000001,17.6040675251354,-3.75457142300864));
#582=CARTESIAN_POINT('Origin',(-87.0000000000001,3.3181972244E-14,7.38987446547347E-16));
#583=CARTESIAN_POINT('Origin',(-87.0000000000001,15.6480600223426,-3.33739682045212));
#584=CARTESIAN_POINT('',(-87.0000000000001,15.6480600223426,-3.33739682045212));
#585=CARTESIAN_POINT('Origin',(-87.0000000000001,3.3181972244E-14,7.38987446547347E-16));
#586=CARTESIAN_POINT('Origin',(-74.5000000000001,3.1792218083581E-14,3.69493723273674E-16));
#587=UNCERTAINTY_MEASURE_WITH_UNIT(LENGTH_MEASURE(0.01),#591,
'DISTANCE_ACCURACY_VALUE',
'Maximum model space distance between geometric entities at asserted c
onnectivities');
#588=UNCERTAINTY_MEASURE_WITH_UNIT(LENGTH_MEASURE(1.E-6),#591,
'DISTANCE_ACCURACY_VALUE',
'Maximum model space distance between geometric entities at asserted c
onnectivities');
#589=(
GEOMETRIC_REPRESENTATION_CONTEXT(3)
GLOBAL_UNCERTAINTY_ASSIGNED_CONTEXT((#587))
GLOBAL_UNIT_ASSIGNED_CONTEXT((#591,#594,#592))
REPRESENTATION_CONTEXT('','3D')
);
#590=(
GEOMETRIC_REPRESENTATION_CONTEXT(3)
GLOBAL_UNCERTAINTY_ASSIGNED_CONTEXT((#588))
GLOBAL_UNIT_ASSIGNED_CONTEXT((#591,#594,#592))
REPRESENTATION_CONTEXT('','3D')
);
#591=(
LENGTH_UNIT()
NAMED_UNIT(*)
SI_UNIT(.MILLI.,.METRE.)
);
#592=(
NAMED_UNIT(*)
SI_UNIT($,.STERADIAN.)
SOLID_ANGLE_UNIT()
);
#593=DIMENSIONAL_EXPONENTS(0.,0.,0.,0.,0.,0.,0.);
#594=(
CONVERSION_BASED_UNIT('degree',#596)
NAMED_UNIT(#593)
PLANE_ANGLE_UNIT()
);
#595=(
NAMED_UNIT(*)
PLANE_ANGLE_UNIT()
SI_UNIT($,.RADIAN.)
);
#596=PLANE_ANGLE_MEASURE_WITH_UNIT(PLANE_ANGLE_MEASURE(0.01745329252),#595);
#597=SHAPE_DEFINITION_REPRESENTATION(#598,#599);
#598=PRODUCT_DEFINITION_SHAPE('',$,#601);
#599=SHAPE_REPRESENTATION('',(#340),#589);
#600=DESIGN_CONTEXT('part definition',#605,'design');
#601=PRODUCT_DEFINITION('26010032000','26010032000',#602,#600);
#602=PRODUCT_DEFINITION_FORMATION('',$,#607);
#603=PRODUCT_RELATED_PRODUCT_CATEGORY('26010032000','26010032000',(#607));
#604=APPLICATION_PROTOCOL_DEFINITION('international standard',
'ap203_configuration_controlled_3d_design_of_mechanical_parts_and_asse
mblies_mim_lf',2004,#605);
#605=APPLICATION_CONTEXT(
'Configuration Controlled 3D Design of Mechanical Parts and Assemblies');
#606=MECHANICAL_CONTEXT('part definition',#605,'mechanical');
#607=PRODUCT('26010032000','26010032000',$,(#606));
#608=PRESENTATION_STYLE_ASSIGNMENT((#610));
#609=PRESENTATION_STYLE_ASSIGNMENT((#611));
#610=SURFACE_STYLE_USAGE(.BOTH.,#612);
#611=SURFACE_STYLE_USAGE(.BOTH.,#613);
#612=SURFACE_SIDE_STYLE($,(#614));
#613=SURFACE_SIDE_STYLE($,(#615));
#614=SURFACE_STYLE_FILL_AREA(#616);
#615=SURFACE_STYLE_FILL_AREA(#617);
#616=FILL_AREA_STYLE($,(#618));
#617=FILL_AREA_STYLE($,(#619));
#618=FILL_AREA_STYLE_COLOUR($,#620);
#619=FILL_AREA_STYLE_COLOUR($,#621);
#620=COLOUR_RGB('',0.745098039215686,0.737254901960784,0.729411764705882);
#621=COLOUR_RGB('',0.,0.6,0.8);
ENDSEC;
END-ISO-10303-21;
