ISO-10303-21;
HEADER;
/* Generated by software containing ST-Developer
 * from STEP Tools, Inc. (www.steptools.com) 
 */

FILE_DESCRIPTION(
/* description */ ('Hadicov\X\FD n\X\E1stavec p\X2\0159\X0\iva\X2\0159
\X0\ovac\X\ED'),
/* implementation_level */ '2;1');

FILE_NAME(
/* name */ 
'C:\\Vault_Workspace\\DATA\\Katalog Bupospol\\2 Potrubn\X\ED d\X\EDly\\
2.6 Hadicov\X\E9 n\X\E1stavce\\26020\\26020\\26020065000.stp',
/* time_stamp */ '2016-01-12T07:34:37+01:00',
/* author */ ('Struska'),
/* organization */ ('Bupospol'),
/* preprocessor_version */ 'ST-DEVELOPER v15.6',
/* originating_system */ 'Autodesk Inventor 2015',
/* authorisation */ '');

FILE_SCHEMA (('CONFIG_CONTROL_DESIGN'));
ENDSEC;

DATA;
#10=MECHANICAL_DESIGN_GEOMETRIC_PRESENTATION_REPRESENTATION('',(#184,#187,
#185,#199,#198,#194,#186,#196,#188,#201,#200,#191,#190,#189,#195,#193,#192,
#197),#380);
#11=SHAPE_REPRESENTATION_RELATIONSHIP('SRR','None',#389,#12);
#12=ADVANCED_BREP_SHAPE_REPRESENTATION($,(#13),#379);
#13=MANIFOLD_SOLID_BREP('T\X2\011B\X0\leso1',#219);
#14=CYLINDRICAL_SURFACE('',#241,34.);
#15=CYLINDRICAL_SURFACE('',#242,34.);
#16=CYLINDRICAL_SURFACE('',#243,34.);
#17=CYLINDRICAL_SURFACE('',#244,34.);
#18=CYLINDRICAL_SURFACE('',#251,34.);
#19=CYLINDRICAL_SURFACE('',#254,30.25);
#20=CONICAL_SURFACE('',#224,33.3186136498099,6.49999999999998);
#21=CONICAL_SURFACE('',#229,33.3186136498099,6.49999999999998);
#22=CONICAL_SURFACE('',#234,33.3186136498099,6.49999999999998);
#23=CONICAL_SURFACE('',#239,33.3186136498099,6.49999999999998);
#24=CONICAL_SURFACE('',#246,33.3186136498099,6.49999999999998);
#25=FACE_BOUND('',#60,.T.);
#26=FACE_BOUND('',#62,.T.);
#27=FACE_BOUND('',#64,.T.);
#28=FACE_BOUND('',#66,.T.);
#29=FACE_BOUND('',#68,.T.);
#30=FACE_BOUND('',#70,.T.);
#31=FACE_BOUND('',#72,.T.);
#32=FACE_BOUND('',#74,.T.);
#33=FACE_BOUND('',#76,.T.);
#34=FACE_BOUND('',#78,.T.);
#35=FACE_BOUND('',#80,.T.);
#36=FACE_BOUND('',#82,.T.);
#37=FACE_BOUND('',#84,.T.);
#38=FACE_BOUND('',#86,.T.);
#39=FACE_BOUND('',#88,.T.);
#40=FACE_BOUND('',#90,.T.);
#41=FACE_BOUND('',#92,.T.);
#42=FACE_OUTER_BOUND('',#59,.T.);
#43=FACE_OUTER_BOUND('',#61,.T.);
#44=FACE_OUTER_BOUND('',#63,.T.);
#45=FACE_OUTER_BOUND('',#65,.T.);
#46=FACE_OUTER_BOUND('',#67,.T.);
#47=FACE_OUTER_BOUND('',#69,.T.);
#48=FACE_OUTER_BOUND('',#71,.T.);
#49=FACE_OUTER_BOUND('',#73,.T.);
#50=FACE_OUTER_BOUND('',#75,.T.);
#51=FACE_OUTER_BOUND('',#77,.T.);
#52=FACE_OUTER_BOUND('',#79,.T.);
#53=FACE_OUTER_BOUND('',#81,.T.);
#54=FACE_OUTER_BOUND('',#83,.T.);
#55=FACE_OUTER_BOUND('',#85,.T.);
#56=FACE_OUTER_BOUND('',#87,.T.);
#57=FACE_OUTER_BOUND('',#89,.T.);
#58=FACE_OUTER_BOUND('',#91,.T.);
#59=EDGE_LOOP('',(#144));
#60=EDGE_LOOP('',(#145));
#61=EDGE_LOOP('',(#146));
#62=EDGE_LOOP('',(#147));
#63=EDGE_LOOP('',(#148));
#64=EDGE_LOOP('',(#149));
#65=EDGE_LOOP('',(#150));
#66=EDGE_LOOP('',(#151));
#67=EDGE_LOOP('',(#152));
#68=EDGE_LOOP('',(#153));
#69=EDGE_LOOP('',(#154));
#70=EDGE_LOOP('',(#155));
#71=EDGE_LOOP('',(#156));
#72=EDGE_LOOP('',(#157));
#73=EDGE_LOOP('',(#158));
#74=EDGE_LOOP('',(#159));
#75=EDGE_LOOP('',(#160));
#76=EDGE_LOOP('',(#161));
#77=EDGE_LOOP('',(#162));
#78=EDGE_LOOP('',(#163));
#79=EDGE_LOOP('',(#164));
#80=EDGE_LOOP('',(#165));
#81=EDGE_LOOP('',(#166));
#82=EDGE_LOOP('',(#167));
#83=EDGE_LOOP('',(#168));
#84=EDGE_LOOP('',(#169));
#85=EDGE_LOOP('',(#170));
#86=EDGE_LOOP('',(#171));
#87=EDGE_LOOP('',(#172));
#88=EDGE_LOOP('',(#173));
#89=EDGE_LOOP('',(#174));
#90=EDGE_LOOP('',(#175));
#91=EDGE_LOOP('',(#176));
#92=EDGE_LOOP('',(#177));
#93=CIRCLE('',#222,34.);
#94=CIRCLE('',#223,32.635);
#95=CIRCLE('',#225,34.);
#96=CIRCLE('',#227,34.);
#97=CIRCLE('',#228,32.635);
#98=CIRCLE('',#230,34.);
#99=CIRCLE('',#232,34.);
#100=CIRCLE('',#233,32.635);
#101=CIRCLE('',#235,34.);
#102=CIRCLE('',#237,34.);
#103=CIRCLE('',#238,32.635);
#104=CIRCLE('',#240,34.);
#105=CIRCLE('',#245,34.);
#106=CIRCLE('',#247,34.);
#107=CIRCLE('',#248,32.635);
#108=CIRCLE('',#250,30.25);
#109=CIRCLE('',#253,30.25);
#110=VERTEX_POINT('',#327);
#111=VERTEX_POINT('',#329);
#112=VERTEX_POINT('',#332);
#113=VERTEX_POINT('',#335);
#114=VERTEX_POINT('',#337);
#115=VERTEX_POINT('',#340);
#116=VERTEX_POINT('',#343);
#117=VERTEX_POINT('',#345);
#118=VERTEX_POINT('',#348);
#119=VERTEX_POINT('',#351);
#120=VERTEX_POINT('',#353);
#121=VERTEX_POINT('',#356);
#122=VERTEX_POINT('',#362);
#123=VERTEX_POINT('',#365);
#124=VERTEX_POINT('',#367);
#125=VERTEX_POINT('',#370);
#126=VERTEX_POINT('',#374);
#127=EDGE_CURVE('',#110,#110,#93,.T.);
#128=EDGE_CURVE('',#111,#111,#94,.T.);
#129=EDGE_CURVE('',#112,#112,#95,.T.);
#130=EDGE_CURVE('',#113,#113,#96,.T.);
#131=EDGE_CURVE('',#114,#114,#97,.T.);
#132=EDGE_CURVE('',#115,#115,#98,.T.);
#133=EDGE_CURVE('',#116,#116,#99,.T.);
#134=EDGE_CURVE('',#117,#117,#100,.T.);
#135=EDGE_CURVE('',#118,#118,#101,.T.);
#136=EDGE_CURVE('',#119,#119,#102,.T.);
#137=EDGE_CURVE('',#120,#120,#103,.T.);
#138=EDGE_CURVE('',#121,#121,#104,.T.);
#139=EDGE_CURVE('',#122,#122,#105,.T.);
#140=EDGE_CURVE('',#123,#123,#106,.T.);
#141=EDGE_CURVE('',#124,#124,#107,.T.);
#142=EDGE_CURVE('',#125,#125,#108,.T.);
#143=EDGE_CURVE('',#126,#126,#109,.T.);
#144=ORIENTED_EDGE('',*,*,#127,.F.);
#145=ORIENTED_EDGE('',*,*,#128,.F.);
#146=ORIENTED_EDGE('',*,*,#129,.F.);
#147=ORIENTED_EDGE('',*,*,#128,.T.);
#148=ORIENTED_EDGE('',*,*,#130,.F.);
#149=ORIENTED_EDGE('',*,*,#131,.F.);
#150=ORIENTED_EDGE('',*,*,#132,.F.);
#151=ORIENTED_EDGE('',*,*,#131,.T.);
#152=ORIENTED_EDGE('',*,*,#133,.F.);
#153=ORIENTED_EDGE('',*,*,#134,.F.);
#154=ORIENTED_EDGE('',*,*,#135,.F.);
#155=ORIENTED_EDGE('',*,*,#134,.T.);
#156=ORIENTED_EDGE('',*,*,#136,.F.);
#157=ORIENTED_EDGE('',*,*,#137,.F.);
#158=ORIENTED_EDGE('',*,*,#138,.F.);
#159=ORIENTED_EDGE('',*,*,#137,.T.);
#160=ORIENTED_EDGE('',*,*,#138,.T.);
#161=ORIENTED_EDGE('',*,*,#133,.T.);
#162=ORIENTED_EDGE('',*,*,#135,.T.);
#163=ORIENTED_EDGE('',*,*,#130,.T.);
#164=ORIENTED_EDGE('',*,*,#132,.T.);
#165=ORIENTED_EDGE('',*,*,#127,.T.);
#166=ORIENTED_EDGE('',*,*,#139,.T.);
#167=ORIENTED_EDGE('',*,*,#129,.T.);
#168=ORIENTED_EDGE('',*,*,#140,.F.);
#169=ORIENTED_EDGE('',*,*,#141,.F.);
#170=ORIENTED_EDGE('',*,*,#139,.F.);
#171=ORIENTED_EDGE('',*,*,#142,.T.);
#172=ORIENTED_EDGE('',*,*,#136,.T.);
#173=ORIENTED_EDGE('',*,*,#140,.T.);
#174=ORIENTED_EDGE('',*,*,#141,.T.);
#175=ORIENTED_EDGE('',*,*,#143,.F.);
#176=ORIENTED_EDGE('',*,*,#143,.T.);
#177=ORIENTED_EDGE('',*,*,#142,.F.);
#178=PLANE('',#221);
#179=PLANE('',#226);
#180=PLANE('',#231);
#181=PLANE('',#236);
#182=PLANE('',#249);
#183=PLANE('',#252);
#184=STYLED_ITEM('',(#398),#202);
#185=STYLED_ITEM('',(#398),#203);
#186=STYLED_ITEM('',(#398),#204);
#187=STYLED_ITEM('',(#398),#205);
#188=STYLED_ITEM('',(#398),#206);
#189=STYLED_ITEM('',(#398),#207);
#190=STYLED_ITEM('',(#398),#208);
#191=STYLED_ITEM('',(#398),#209);
#192=STYLED_ITEM('',(#398),#210);
#193=STYLED_ITEM('',(#398),#211);
#194=STYLED_ITEM('',(#398),#212);
#195=STYLED_ITEM('',(#398),#213);
#196=STYLED_ITEM('',(#398),#214);
#197=STYLED_ITEM('',(#398),#215);
#198=STYLED_ITEM('',(#398),#216);
#199=STYLED_ITEM('',(#398),#217);
#200=STYLED_ITEM('',(#398),#218);
#201=STYLED_ITEM('',(#398),#13);
#202=ADVANCED_FACE('',(#42,#25),#178,.F.);
#203=ADVANCED_FACE('',(#43,#26),#20,.T.);
#204=ADVANCED_FACE('',(#44,#27),#179,.F.);
#205=ADVANCED_FACE('',(#45,#28),#21,.T.);
#206=ADVANCED_FACE('',(#46,#29),#180,.F.);
#207=ADVANCED_FACE('',(#47,#30),#22,.T.);
#208=ADVANCED_FACE('',(#48,#31),#181,.F.);
#209=ADVANCED_FACE('',(#49,#32),#23,.T.);
#210=ADVANCED_FACE('',(#50,#33),#14,.T.);
#211=ADVANCED_FACE('',(#51,#34),#15,.T.);
#212=ADVANCED_FACE('',(#52,#35),#16,.T.);
#213=ADVANCED_FACE('',(#53,#36),#17,.T.);
#214=ADVANCED_FACE('',(#54,#37),#24,.T.);
#215=ADVANCED_FACE('',(#55,#38),#182,.T.);
#216=ADVANCED_FACE('',(#56,#39),#18,.T.);
#217=ADVANCED_FACE('',(#57,#40),#183,.T.);
#218=ADVANCED_FACE('',(#58,#41),#19,.F.);
#219=CLOSED_SHELL('',(#202,#203,#204,#205,#206,#207,#208,#209,#210,#211,
#212,#213,#214,#215,#216,#217,#218));
#220=AXIS2_PLACEMENT_3D('placement',#325,#255,#256);
#221=AXIS2_PLACEMENT_3D('',#326,#257,#258);
#222=AXIS2_PLACEMENT_3D('',#328,#259,#260);
#223=AXIS2_PLACEMENT_3D('',#330,#261,#262);
#224=AXIS2_PLACEMENT_3D('',#331,#263,#264);
#225=AXIS2_PLACEMENT_3D('',#333,#265,#266);
#226=AXIS2_PLACEMENT_3D('',#334,#267,#268);
#227=AXIS2_PLACEMENT_3D('',#336,#269,#270);
#228=AXIS2_PLACEMENT_3D('',#338,#271,#272);
#229=AXIS2_PLACEMENT_3D('',#339,#273,#274);
#230=AXIS2_PLACEMENT_3D('',#341,#275,#276);
#231=AXIS2_PLACEMENT_3D('',#342,#277,#278);
#232=AXIS2_PLACEMENT_3D('',#344,#279,#280);
#233=AXIS2_PLACEMENT_3D('',#346,#281,#282);
#234=AXIS2_PLACEMENT_3D('',#347,#283,#284);
#235=AXIS2_PLACEMENT_3D('',#349,#285,#286);
#236=AXIS2_PLACEMENT_3D('',#350,#287,#288);
#237=AXIS2_PLACEMENT_3D('',#352,#289,#290);
#238=AXIS2_PLACEMENT_3D('',#354,#291,#292);
#239=AXIS2_PLACEMENT_3D('',#355,#293,#294);
#240=AXIS2_PLACEMENT_3D('',#357,#295,#296);
#241=AXIS2_PLACEMENT_3D('',#358,#297,#298);
#242=AXIS2_PLACEMENT_3D('',#359,#299,#300);
#243=AXIS2_PLACEMENT_3D('',#360,#301,#302);
#244=AXIS2_PLACEMENT_3D('',#361,#303,#304);
#245=AXIS2_PLACEMENT_3D('',#363,#305,#306);
#246=AXIS2_PLACEMENT_3D('',#364,#307,#308);
#247=AXIS2_PLACEMENT_3D('',#366,#309,#310);
#248=AXIS2_PLACEMENT_3D('',#368,#311,#312);
#249=AXIS2_PLACEMENT_3D('',#369,#313,#314);
#250=AXIS2_PLACEMENT_3D('',#371,#315,#316);
#251=AXIS2_PLACEMENT_3D('',#372,#317,#318);
#252=AXIS2_PLACEMENT_3D('',#373,#319,#320);
#253=AXIS2_PLACEMENT_3D('',#375,#321,#322);
#254=AXIS2_PLACEMENT_3D('',#376,#323,#324);
#255=DIRECTION('axis',(0.,0.,1.));
#256=DIRECTION('refdir',(1.,0.,0.));
#257=DIRECTION('center_axis',(1.,0.,0.));
#258=DIRECTION('ref_axis',(0.,0.,-1.));
#259=DIRECTION('center_axis',(1.,0.,0.));
#260=DIRECTION('ref_axis',(0.,1.,0.));
#261=DIRECTION('center_axis',(-1.,0.,0.));
#262=DIRECTION('ref_axis',(0.,0.,1.));
#263=DIRECTION('center_axis',(-1.,0.,0.));
#264=DIRECTION('ref_axis',(0.,1.,0.));
#265=DIRECTION('center_axis',(-1.,0.,0.));
#266=DIRECTION('ref_axis',(0.,1.,0.));
#267=DIRECTION('center_axis',(1.,0.,0.));
#268=DIRECTION('ref_axis',(0.,0.,-1.));
#269=DIRECTION('center_axis',(1.,0.,0.));
#270=DIRECTION('ref_axis',(0.,1.,0.));
#271=DIRECTION('center_axis',(-1.,0.,0.));
#272=DIRECTION('ref_axis',(0.,0.,1.));
#273=DIRECTION('center_axis',(-1.,0.,0.));
#274=DIRECTION('ref_axis',(0.,1.,0.));
#275=DIRECTION('center_axis',(-1.,0.,0.));
#276=DIRECTION('ref_axis',(0.,1.,0.));
#277=DIRECTION('center_axis',(1.,0.,0.));
#278=DIRECTION('ref_axis',(0.,0.,-1.));
#279=DIRECTION('center_axis',(1.,0.,0.));
#280=DIRECTION('ref_axis',(0.,1.,0.));
#281=DIRECTION('center_axis',(-1.,0.,0.));
#282=DIRECTION('ref_axis',(0.,0.,1.));
#283=DIRECTION('center_axis',(-1.,0.,0.));
#284=DIRECTION('ref_axis',(0.,1.,0.));
#285=DIRECTION('center_axis',(-1.,0.,0.));
#286=DIRECTION('ref_axis',(0.,1.,0.));
#287=DIRECTION('center_axis',(1.,0.,0.));
#288=DIRECTION('ref_axis',(0.,0.,-1.));
#289=DIRECTION('center_axis',(1.,0.,0.));
#290=DIRECTION('ref_axis',(0.,1.,0.));
#291=DIRECTION('center_axis',(-1.,0.,0.));
#292=DIRECTION('ref_axis',(0.,0.,1.));
#293=DIRECTION('center_axis',(-1.,0.,0.));
#294=DIRECTION('ref_axis',(0.,1.,0.));
#295=DIRECTION('center_axis',(-1.,0.,0.));
#296=DIRECTION('ref_axis',(0.,1.,0.));
#297=DIRECTION('center_axis',(1.,0.,0.));
#298=DIRECTION('ref_axis',(0.,1.,0.));
#299=DIRECTION('center_axis',(1.,0.,0.));
#300=DIRECTION('ref_axis',(0.,1.,0.));
#301=DIRECTION('center_axis',(1.,0.,0.));
#302=DIRECTION('ref_axis',(0.,1.,0.));
#303=DIRECTION('center_axis',(1.,0.,0.));
#304=DIRECTION('ref_axis',(0.,1.,0.));
#305=DIRECTION('center_axis',(1.,0.,0.));
#306=DIRECTION('ref_axis',(0.,0.,-1.));
#307=DIRECTION('center_axis',(-1.,0.,0.));
#308=DIRECTION('ref_axis',(0.,1.,0.));
#309=DIRECTION('center_axis',(-1.,0.,0.));
#310=DIRECTION('ref_axis',(0.,1.,0.));
#311=DIRECTION('center_axis',(1.,0.,0.));
#312=DIRECTION('ref_axis',(0.,1.,0.));
#313=DIRECTION('center_axis',(-1.,0.,0.));
#314=DIRECTION('ref_axis',(0.,0.,1.));
#315=DIRECTION('center_axis',(1.,0.,0.));
#316=DIRECTION('ref_axis',(0.,0.,-1.));
#317=DIRECTION('center_axis',(1.,0.,0.));
#318=DIRECTION('ref_axis',(0.,1.,0.));
#319=DIRECTION('center_axis',(1.,0.,0.));
#320=DIRECTION('ref_axis',(0.,0.,-1.));
#321=DIRECTION('center_axis',(1.,0.,0.));
#322=DIRECTION('ref_axis',(0.,0.,-1.));
#323=DIRECTION('center_axis',(1.,0.,0.));
#324=DIRECTION('ref_axis',(0.,1.,0.));
#325=CARTESIAN_POINT('',(0.,0.,0.));
#326=CARTESIAN_POINT('Origin',(-48.,35.635,0.));
#327=CARTESIAN_POINT('',(-48.,-34.,-4.163799117101E-15));
#328=CARTESIAN_POINT('Origin',(-48.,0.,0.));
#329=CARTESIAN_POINT('',(-48.,32.635,0.));
#330=CARTESIAN_POINT('Origin',(-48.,0.,0.));
#331=CARTESIAN_POINT('Origin',(-54.,0.,0.));
#332=CARTESIAN_POINT('',(-59.9804512421275,-34.,4.163799117101E-15));
#333=CARTESIAN_POINT('Origin',(-59.9804512421275,0.,0.));
#334=CARTESIAN_POINT('Origin',(-36.,35.635,0.));
#335=CARTESIAN_POINT('',(-36.,-34.,-4.163799117101E-15));
#336=CARTESIAN_POINT('Origin',(-36.,0.,0.));
#337=CARTESIAN_POINT('',(-36.,32.635,0.));
#338=CARTESIAN_POINT('Origin',(-36.,0.,0.));
#339=CARTESIAN_POINT('Origin',(-42.,0.,0.));
#340=CARTESIAN_POINT('',(-47.9804512421275,-34.,4.163799117101E-15));
#341=CARTESIAN_POINT('Origin',(-47.9804512421275,0.,0.));
#342=CARTESIAN_POINT('Origin',(-24.,35.635,0.));
#343=CARTESIAN_POINT('',(-24.,-34.,-4.163799117101E-15));
#344=CARTESIAN_POINT('Origin',(-24.,0.,0.));
#345=CARTESIAN_POINT('',(-24.,32.635,0.));
#346=CARTESIAN_POINT('Origin',(-24.,0.,0.));
#347=CARTESIAN_POINT('Origin',(-30.,0.,0.));
#348=CARTESIAN_POINT('',(-35.9804512421275,-34.,4.163799117101E-15));
#349=CARTESIAN_POINT('Origin',(-35.9804512421275,0.,0.));
#350=CARTESIAN_POINT('Origin',(-12.,35.635,0.));
#351=CARTESIAN_POINT('',(-12.,-34.,-4.163799117101E-15));
#352=CARTESIAN_POINT('Origin',(-12.,0.,0.));
#353=CARTESIAN_POINT('',(-12.,32.635,0.));
#354=CARTESIAN_POINT('Origin',(-12.,0.,0.));
#355=CARTESIAN_POINT('Origin',(-18.,0.,0.));
#356=CARTESIAN_POINT('',(-23.9804512421275,-34.,4.163799117101E-15));
#357=CARTESIAN_POINT('Origin',(-23.9804512421275,0.,0.));
#358=CARTESIAN_POINT('Origin',(-53.,0.,0.));
#359=CARTESIAN_POINT('Origin',(-53.,0.,0.));
#360=CARTESIAN_POINT('Origin',(-53.,0.,0.));
#361=CARTESIAN_POINT('Origin',(-53.,0.,0.));
#362=CARTESIAN_POINT('',(-106.,34.,0.));
#363=CARTESIAN_POINT('Origin',(-106.,0.,0.));
#364=CARTESIAN_POINT('Origin',(-6.00000000000001,0.,0.));
#365=CARTESIAN_POINT('',(-11.9804512421275,-34.,4.163799117101E-15));
#366=CARTESIAN_POINT('Origin',(-11.9804512421275,0.,0.));
#367=CARTESIAN_POINT('',(0.,32.635,0.));
#368=CARTESIAN_POINT('Origin',(-5.55111512312578E-15,0.,0.));
#369=CARTESIAN_POINT('Origin',(-106.,34.,0.));
#370=CARTESIAN_POINT('',(-106.,30.25,0.));
#371=CARTESIAN_POINT('Origin',(-106.,0.,0.));
#372=CARTESIAN_POINT('Origin',(-53.,0.,0.));
#373=CARTESIAN_POINT('Origin',(-5.55683485113112E-15,30.25,0.));
#374=CARTESIAN_POINT('',(-5.55683485113112E-15,30.25,0.));
#375=CARTESIAN_POINT('Origin',(-8.88178419700125E-15,0.,0.));
#376=CARTESIAN_POINT('Origin',(-53.,0.,0.));
#377=UNCERTAINTY_MEASURE_WITH_UNIT(LENGTH_MEASURE(0.01),#381,
'DISTANCE_ACCURACY_VALUE',
'Maximum model space distance between geometric entities at asserted c
onnectivities');
#378=UNCERTAINTY_MEASURE_WITH_UNIT(LENGTH_MEASURE(1.E-6),#381,
'DISTANCE_ACCURACY_VALUE',
'Maximum model space distance between geometric entities at asserted c
onnectivities');
#379=(
GEOMETRIC_REPRESENTATION_CONTEXT(3)
GLOBAL_UNCERTAINTY_ASSIGNED_CONTEXT((#377))
GLOBAL_UNIT_ASSIGNED_CONTEXT((#381,#384,#382))
REPRESENTATION_CONTEXT('','3D')
);
#380=(
GEOMETRIC_REPRESENTATION_CONTEXT(3)
GLOBAL_UNCERTAINTY_ASSIGNED_CONTEXT((#378))
GLOBAL_UNIT_ASSIGNED_CONTEXT((#381,#384,#382))
REPRESENTATION_CONTEXT('','3D')
);
#381=(
LENGTH_UNIT()
NAMED_UNIT(*)
SI_UNIT(.MILLI.,.METRE.)
);
#382=(
NAMED_UNIT(*)
SI_UNIT($,.STERADIAN.)
SOLID_ANGLE_UNIT()
);
#383=DIMENSIONAL_EXPONENTS(0.,0.,0.,0.,0.,0.,0.);
#384=(
CONVERSION_BASED_UNIT('degree',#386)
NAMED_UNIT(#383)
PLANE_ANGLE_UNIT()
);
#385=(
NAMED_UNIT(*)
PLANE_ANGLE_UNIT()
SI_UNIT($,.RADIAN.)
);
#386=PLANE_ANGLE_MEASURE_WITH_UNIT(PLANE_ANGLE_MEASURE(0.01745329252),#385);
#387=SHAPE_DEFINITION_REPRESENTATION(#388,#389);
#388=PRODUCT_DEFINITION_SHAPE('',$,#391);
#389=SHAPE_REPRESENTATION('',(#220),#379);
#390=DESIGN_CONTEXT('part definition',#395,'design');
#391=PRODUCT_DEFINITION('26020065000','26020065000',#392,#390);
#392=PRODUCT_DEFINITION_FORMATION('',$,#397);
#393=PRODUCT_RELATED_PRODUCT_CATEGORY('26020065000','26020065000',(#397));
#394=APPLICATION_PROTOCOL_DEFINITION('international standard',
'ap203_configuration_controlled_3d_design_of_mechanical_parts_and_asse
mblies_mim_lf',2004,#395);
#395=APPLICATION_CONTEXT(
'Configuration Controlled 3D Design of Mechanical Parts and Assemblies');
#396=MECHANICAL_CONTEXT('part definition',#395,'mechanical');
#397=PRODUCT('26020065000','26020065000',$,(#396));
#398=PRESENTATION_STYLE_ASSIGNMENT((#399));
#399=SURFACE_STYLE_USAGE(.BOTH.,#400);
#400=SURFACE_SIDE_STYLE($,(#401));
#401=SURFACE_STYLE_FILL_AREA(#402);
#402=FILL_AREA_STYLE($,(#403));
#403=FILL_AREA_STYLE_COLOUR($,#404);
#404=COLOUR_RGB('',0.745098039215686,0.737254901960784,0.729411764705882);
ENDSEC;
END-ISO-10303-21;
