ISO-10303-21;
HEADER;
/* Generated by software containing ST-Developer
 * from STEP Tools, Inc. (www.steptools.com) 
 */

FILE_DESCRIPTION(
/* description */ (''),
/* implementation_level */ '2;1');

FILE_NAME(
/* name */ 
'C:\\Vault_Workspace\\DATA\\Katalog Bupospol\\2 Potrubn\X\ED d\X\EDly\\
2.6 Hadicov\X\E9 n\X\E1stavce\\26040\\26040\\26040010000.stp',
/* time_stamp */ '2016-03-08T11:45:53+01:00',
/* author */ ('Struska'),
/* organization */ ('BUPOSPOL'),
/* preprocessor_version */ 'ST-DEVELOPER v15.6',
/* originating_system */ 'Autodesk Inventor 2015',
/* authorisation */ '');

FILE_SCHEMA (('CONFIG_CONTROL_DESIGN'));
ENDSEC;

DATA;
#10=MECHANICAL_DESIGN_GEOMETRIC_PRESENTATION_REPRESENTATION('',(#204,#205,
#206,#207,#208,#209,#210,#211,#212,#217,#213,#214,#215,#216,#218,#219,#220,
#221,#222,#223),#422);
#11=SHAPE_REPRESENTATION_RELATIONSHIP('SRR','None',#431,#12);
#12=ADVANCED_BREP_SHAPE_REPRESENTATION($,(#13),#421);
#13=MANIFOLD_SOLID_BREP('T\X2\011B\X0\leso1',#243);
#14=CONICAL_SURFACE('',#256,10.5018722911782,15.);
#15=CONICAL_SURFACE('',#258,7.37687229117821,85.);
#16=CONICAL_SURFACE('',#266,7.11835368270871,6.99999999999998);
#17=CONICAL_SURFACE('',#270,7.11835368270871,6.99999999999998);
#18=CONICAL_SURFACE('',#274,7.11835368270871,6.99999999999998);
#19=CONICAL_SURFACE('',#275,7.11835368270871,6.99999999999998);
#20=PLANE('',#250);
#21=PLANE('',#254);
#22=PLANE('',#260);
#23=PLANE('',#263);
#24=PLANE('',#267);
#25=PLANE('',#271);
#26=PLANE('',#277);
#27=PLANE('',#280);
#28=CYLINDRICAL_SURFACE('',#248,6.50000000000003);
#29=CYLINDRICAL_SURFACE('',#252,9.);
#30=CYLINDRICAL_SURFACE('',#279,7.5);
#31=CYLINDRICAL_SURFACE('',#282,5.);
#32=FACE_BOUND('',#71,.T.);
#33=FACE_BOUND('',#73,.T.);
#34=FACE_BOUND('',#75,.T.);
#35=FACE_BOUND('',#77,.T.);
#36=FACE_BOUND('',#79,.T.);
#37=FACE_BOUND('',#81,.T.);
#38=FACE_BOUND('',#83,.T.);
#39=FACE_BOUND('',#85,.T.);
#40=FACE_BOUND('',#87,.T.);
#41=FACE_BOUND('',#89,.T.);
#42=FACE_BOUND('',#91,.T.);
#43=FACE_BOUND('',#93,.T.);
#44=FACE_BOUND('',#95,.T.);
#45=FACE_BOUND('',#97,.T.);
#46=FACE_BOUND('',#99,.T.);
#47=FACE_BOUND('',#101,.T.);
#48=FACE_BOUND('',#103,.T.);
#49=FACE_BOUND('',#105,.T.);
#50=FACE_BOUND('',#107,.T.);
#51=FACE_OUTER_BOUND('',#70,.T.);
#52=FACE_OUTER_BOUND('',#72,.T.);
#53=FACE_OUTER_BOUND('',#74,.T.);
#54=FACE_OUTER_BOUND('',#76,.T.);
#55=FACE_OUTER_BOUND('',#78,.T.);
#56=FACE_OUTER_BOUND('',#80,.T.);
#57=FACE_OUTER_BOUND('',#82,.T.);
#58=FACE_OUTER_BOUND('',#84,.T.);
#59=FACE_OUTER_BOUND('',#86,.T.);
#60=FACE_OUTER_BOUND('',#88,.T.);
#61=FACE_OUTER_BOUND('',#90,.T.);
#62=FACE_OUTER_BOUND('',#92,.T.);
#63=FACE_OUTER_BOUND('',#94,.T.);
#64=FACE_OUTER_BOUND('',#96,.T.);
#65=FACE_OUTER_BOUND('',#98,.T.);
#66=FACE_OUTER_BOUND('',#100,.T.);
#67=FACE_OUTER_BOUND('',#102,.T.);
#68=FACE_OUTER_BOUND('',#104,.T.);
#69=FACE_OUTER_BOUND('',#106,.T.);
#70=EDGE_LOOP('',(#165));
#71=EDGE_LOOP('',(#166));
#72=EDGE_LOOP('',(#167));
#73=EDGE_LOOP('',(#168));
#74=EDGE_LOOP('',(#169));
#75=EDGE_LOOP('',(#170));
#76=EDGE_LOOP('',(#171));
#77=EDGE_LOOP('',(#172));
#78=EDGE_LOOP('',(#173));
#79=EDGE_LOOP('',(#174));
#80=EDGE_LOOP('',(#175));
#81=EDGE_LOOP('',(#176));
#82=EDGE_LOOP('',(#177));
#83=EDGE_LOOP('',(#178));
#84=EDGE_LOOP('',(#179));
#85=EDGE_LOOP('',(#180));
#86=EDGE_LOOP('',(#181));
#87=EDGE_LOOP('',(#182));
#88=EDGE_LOOP('',(#183));
#89=EDGE_LOOP('',(#184));
#90=EDGE_LOOP('',(#185));
#91=EDGE_LOOP('',(#186));
#92=EDGE_LOOP('',(#187));
#93=EDGE_LOOP('',(#188));
#94=EDGE_LOOP('',(#189));
#95=EDGE_LOOP('',(#190));
#96=EDGE_LOOP('',(#191));
#97=EDGE_LOOP('',(#192));
#98=EDGE_LOOP('',(#193));
#99=EDGE_LOOP('',(#194));
#100=EDGE_LOOP('',(#195));
#101=EDGE_LOOP('',(#196));
#102=EDGE_LOOP('',(#197));
#103=EDGE_LOOP('',(#198));
#104=EDGE_LOOP('',(#199));
#105=EDGE_LOOP('',(#200));
#106=EDGE_LOOP('',(#201));
#107=EDGE_LOOP('',(#202));
#108=CIRCLE('',#246,6.50000000000003);
#109=CIRCLE('',#247,7.50000000000003);
#110=CIRCLE('',#249,6.50000000000003);
#111=CIRCLE('',#251,9.);
#112=CIRCLE('',#253,9.);
#113=CIRCLE('',#255,11.25);
#114=CIRCLE('',#257,9.75374458235642);
#115=CIRCLE('',#259,5.);
#116=CIRCLE('',#261,7.48670736541742);
#117=CIRCLE('',#262,6.75);
#118=CIRCLE('',#264,7.5);
#119=CIRCLE('',#265,7.48670736541742);
#120=CIRCLE('',#268,7.48670736541742);
#121=CIRCLE('',#269,6.75);
#122=CIRCLE('',#272,7.48670736541742);
#123=CIRCLE('',#273,6.75);
#124=CIRCLE('',#276,6.75);
#125=CIRCLE('',#278,7.5);
#126=CIRCLE('',#281,5.);
#127=VERTEX_POINT('',#363);
#128=VERTEX_POINT('',#365);
#129=VERTEX_POINT('',#368);
#130=VERTEX_POINT('',#371);
#131=VERTEX_POINT('',#374);
#132=VERTEX_POINT('',#377);
#133=VERTEX_POINT('',#380);
#134=VERTEX_POINT('',#383);
#135=VERTEX_POINT('',#386);
#136=VERTEX_POINT('',#388);
#137=VERTEX_POINT('',#391);
#138=VERTEX_POINT('',#393);
#139=VERTEX_POINT('',#397);
#140=VERTEX_POINT('',#399);
#141=VERTEX_POINT('',#403);
#142=VERTEX_POINT('',#405);
#143=VERTEX_POINT('',#409);
#144=VERTEX_POINT('',#412);
#145=VERTEX_POINT('',#416);
#146=EDGE_CURVE('',#127,#127,#108,.T.);
#147=EDGE_CURVE('',#128,#128,#109,.T.);
#148=EDGE_CURVE('',#129,#129,#110,.T.);
#149=EDGE_CURVE('',#130,#130,#111,.T.);
#150=EDGE_CURVE('',#131,#131,#112,.T.);
#151=EDGE_CURVE('',#132,#132,#113,.T.);
#152=EDGE_CURVE('',#133,#133,#114,.T.);
#153=EDGE_CURVE('',#134,#134,#115,.T.);
#154=EDGE_CURVE('',#135,#135,#116,.T.);
#155=EDGE_CURVE('',#136,#136,#117,.T.);
#156=EDGE_CURVE('',#137,#137,#118,.T.);
#157=EDGE_CURVE('',#138,#138,#119,.T.);
#158=EDGE_CURVE('',#139,#139,#120,.T.);
#159=EDGE_CURVE('',#140,#140,#121,.T.);
#160=EDGE_CURVE('',#141,#141,#122,.T.);
#161=EDGE_CURVE('',#142,#142,#123,.T.);
#162=EDGE_CURVE('',#143,#143,#124,.T.);
#163=EDGE_CURVE('',#144,#144,#125,.T.);
#164=EDGE_CURVE('',#145,#145,#126,.T.);
#165=ORIENTED_EDGE('',*,*,#146,.T.);
#166=ORIENTED_EDGE('',*,*,#147,.T.);
#167=ORIENTED_EDGE('',*,*,#148,.F.);
#168=ORIENTED_EDGE('',*,*,#146,.F.);
#169=ORIENTED_EDGE('',*,*,#149,.F.);
#170=ORIENTED_EDGE('',*,*,#147,.F.);
#171=ORIENTED_EDGE('',*,*,#150,.F.);
#172=ORIENTED_EDGE('',*,*,#149,.T.);
#173=ORIENTED_EDGE('',*,*,#151,.F.);
#174=ORIENTED_EDGE('',*,*,#150,.T.);
#175=ORIENTED_EDGE('',*,*,#152,.F.);
#176=ORIENTED_EDGE('',*,*,#151,.T.);
#177=ORIENTED_EDGE('',*,*,#153,.F.);
#178=ORIENTED_EDGE('',*,*,#152,.T.);
#179=ORIENTED_EDGE('',*,*,#154,.T.);
#180=ORIENTED_EDGE('',*,*,#155,.F.);
#181=ORIENTED_EDGE('',*,*,#156,.F.);
#182=ORIENTED_EDGE('',*,*,#157,.T.);
#183=ORIENTED_EDGE('',*,*,#155,.T.);
#184=ORIENTED_EDGE('',*,*,#157,.F.);
#185=ORIENTED_EDGE('',*,*,#158,.T.);
#186=ORIENTED_EDGE('',*,*,#159,.F.);
#187=ORIENTED_EDGE('',*,*,#159,.T.);
#188=ORIENTED_EDGE('',*,*,#154,.F.);
#189=ORIENTED_EDGE('',*,*,#160,.T.);
#190=ORIENTED_EDGE('',*,*,#161,.F.);
#191=ORIENTED_EDGE('',*,*,#161,.T.);
#192=ORIENTED_EDGE('',*,*,#158,.F.);
#193=ORIENTED_EDGE('',*,*,#162,.F.);
#194=ORIENTED_EDGE('',*,*,#160,.F.);
#195=ORIENTED_EDGE('',*,*,#163,.F.);
#196=ORIENTED_EDGE('',*,*,#148,.T.);
#197=ORIENTED_EDGE('',*,*,#156,.T.);
#198=ORIENTED_EDGE('',*,*,#163,.T.);
#199=ORIENTED_EDGE('',*,*,#162,.T.);
#200=ORIENTED_EDGE('',*,*,#164,.F.);
#201=ORIENTED_EDGE('',*,*,#153,.T.);
#202=ORIENTED_EDGE('',*,*,#164,.T.);
#203=TOROIDAL_SURFACE('',#245,7.50000000000003,1.);
#204=STYLED_ITEM('',(#440),#224);
#205=STYLED_ITEM('',(#440),#225);
#206=STYLED_ITEM('',(#440),#226);
#207=STYLED_ITEM('',(#440),#227);
#208=STYLED_ITEM('',(#440),#228);
#209=STYLED_ITEM('',(#440),#229);
#210=STYLED_ITEM('',(#440),#230);
#211=STYLED_ITEM('',(#440),#231);
#212=STYLED_ITEM('',(#440),#232);
#213=STYLED_ITEM('',(#440),#233);
#214=STYLED_ITEM('',(#440),#234);
#215=STYLED_ITEM('',(#440),#235);
#216=STYLED_ITEM('',(#440),#236);
#217=STYLED_ITEM('',(#440),#237);
#218=STYLED_ITEM('',(#440),#238);
#219=STYLED_ITEM('',(#440),#239);
#220=STYLED_ITEM('',(#440),#240);
#221=STYLED_ITEM('',(#440),#241);
#222=STYLED_ITEM('',(#440),#242);
#223=STYLED_ITEM('',(#440),#13);
#224=ADVANCED_FACE('',(#51,#32),#203,.F.);
#225=ADVANCED_FACE('',(#52,#33),#28,.T.);
#226=ADVANCED_FACE('',(#53,#34),#20,.T.);
#227=ADVANCED_FACE('',(#54,#35),#29,.T.);
#228=ADVANCED_FACE('',(#55,#36),#21,.T.);
#229=ADVANCED_FACE('',(#56,#37),#14,.T.);
#230=ADVANCED_FACE('',(#57,#38),#15,.T.);
#231=ADVANCED_FACE('',(#58,#39),#22,.F.);
#232=ADVANCED_FACE('',(#59,#40),#23,.F.);
#233=ADVANCED_FACE('',(#60,#41),#16,.T.);
#234=ADVANCED_FACE('',(#61,#42),#24,.F.);
#235=ADVANCED_FACE('',(#62,#43),#17,.T.);
#236=ADVANCED_FACE('',(#63,#44),#25,.F.);
#237=ADVANCED_FACE('',(#64,#45),#18,.T.);
#238=ADVANCED_FACE('',(#65,#46),#19,.T.);
#239=ADVANCED_FACE('',(#66,#47),#26,.T.);
#240=ADVANCED_FACE('',(#67,#48),#30,.T.);
#241=ADVANCED_FACE('',(#68,#49),#27,.T.);
#242=ADVANCED_FACE('',(#69,#50),#31,.F.);
#243=CLOSED_SHELL('',(#224,#225,#226,#227,#228,#229,#230,#231,#232,#233,
#234,#235,#236,#237,#238,#239,#240,#241,#242));
#244=AXIS2_PLACEMENT_3D('placement',#361,#283,#284);
#245=AXIS2_PLACEMENT_3D('',#362,#285,#286);
#246=AXIS2_PLACEMENT_3D('',#364,#287,#288);
#247=AXIS2_PLACEMENT_3D('',#366,#289,#290);
#248=AXIS2_PLACEMENT_3D('',#367,#291,#292);
#249=AXIS2_PLACEMENT_3D('',#369,#293,#294);
#250=AXIS2_PLACEMENT_3D('',#370,#295,#296);
#251=AXIS2_PLACEMENT_3D('',#372,#297,#298);
#252=AXIS2_PLACEMENT_3D('',#373,#299,#300);
#253=AXIS2_PLACEMENT_3D('',#375,#301,#302);
#254=AXIS2_PLACEMENT_3D('',#376,#303,#304);
#255=AXIS2_PLACEMENT_3D('',#378,#305,#306);
#256=AXIS2_PLACEMENT_3D('',#379,#307,#308);
#257=AXIS2_PLACEMENT_3D('',#381,#309,#310);
#258=AXIS2_PLACEMENT_3D('',#382,#311,#312);
#259=AXIS2_PLACEMENT_3D('',#384,#313,#314);
#260=AXIS2_PLACEMENT_3D('',#385,#315,#316);
#261=AXIS2_PLACEMENT_3D('',#387,#317,#318);
#262=AXIS2_PLACEMENT_3D('',#389,#319,#320);
#263=AXIS2_PLACEMENT_3D('',#390,#321,#322);
#264=AXIS2_PLACEMENT_3D('',#392,#323,#324);
#265=AXIS2_PLACEMENT_3D('',#394,#325,#326);
#266=AXIS2_PLACEMENT_3D('',#395,#327,#328);
#267=AXIS2_PLACEMENT_3D('',#396,#329,#330);
#268=AXIS2_PLACEMENT_3D('',#398,#331,#332);
#269=AXIS2_PLACEMENT_3D('',#400,#333,#334);
#270=AXIS2_PLACEMENT_3D('',#401,#335,#336);
#271=AXIS2_PLACEMENT_3D('',#402,#337,#338);
#272=AXIS2_PLACEMENT_3D('',#404,#339,#340);
#273=AXIS2_PLACEMENT_3D('',#406,#341,#342);
#274=AXIS2_PLACEMENT_3D('',#407,#343,#344);
#275=AXIS2_PLACEMENT_3D('',#408,#345,#346);
#276=AXIS2_PLACEMENT_3D('',#410,#347,#348);
#277=AXIS2_PLACEMENT_3D('',#411,#349,#350);
#278=AXIS2_PLACEMENT_3D('',#413,#351,#352);
#279=AXIS2_PLACEMENT_3D('',#414,#353,#354);
#280=AXIS2_PLACEMENT_3D('',#415,#355,#356);
#281=AXIS2_PLACEMENT_3D('',#417,#357,#358);
#282=AXIS2_PLACEMENT_3D('',#418,#359,#360);
#283=DIRECTION('axis',(0.,0.,1.));
#284=DIRECTION('refdir',(1.,0.,0.));
#285=DIRECTION('center_axis',(-1.,0.,0.));
#286=DIRECTION('ref_axis',(0.,0.,1.));
#287=DIRECTION('center_axis',(-1.,0.,0.));
#288=DIRECTION('ref_axis',(0.,-1.,-1.83690953073357E-16));
#289=DIRECTION('center_axis',(1.,0.,0.));
#290=DIRECTION('ref_axis',(0.,-1.,-1.83690953073357E-16));
#291=DIRECTION('center_axis',(-1.,0.,0.));
#292=DIRECTION('ref_axis',(0.,1.,0.));
#293=DIRECTION('center_axis',(1.,0.,0.));
#294=DIRECTION('ref_axis',(0.,1.,0.));
#295=DIRECTION('center_axis',(1.,0.,0.));
#296=DIRECTION('ref_axis',(0.,0.,-1.));
#297=DIRECTION('center_axis',(-1.,0.,0.));
#298=DIRECTION('ref_axis',(0.,0.,1.));
#299=DIRECTION('center_axis',(-1.,0.,0.));
#300=DIRECTION('ref_axis',(0.,1.,0.));
#301=DIRECTION('center_axis',(-1.,0.,0.));
#302=DIRECTION('ref_axis',(0.,0.,1.));
#303=DIRECTION('center_axis',(1.,0.,0.));
#304=DIRECTION('ref_axis',(0.,0.,-1.));
#305=DIRECTION('center_axis',(-1.,0.,0.));
#306=DIRECTION('ref_axis',(0.,0.,1.));
#307=DIRECTION('center_axis',(1.,0.,0.));
#308=DIRECTION('ref_axis',(0.,1.,0.));
#309=DIRECTION('center_axis',(-1.,0.,0.));
#310=DIRECTION('ref_axis',(0.,0.,1.));
#311=DIRECTION('center_axis',(1.,0.,0.));
#312=DIRECTION('ref_axis',(0.,1.,0.));
#313=DIRECTION('center_axis',(-1.,0.,0.));
#314=DIRECTION('ref_axis',(0.,0.,1.));
#315=DIRECTION('center_axis',(1.,0.,0.));
#316=DIRECTION('ref_axis',(0.,0.,-1.));
#317=DIRECTION('center_axis',(-1.,0.,0.));
#318=DIRECTION('ref_axis',(0.,0.,1.));
#319=DIRECTION('center_axis',(-1.,0.,0.));
#320=DIRECTION('ref_axis',(0.,0.,1.));
#321=DIRECTION('center_axis',(-1.,0.,0.));
#322=DIRECTION('ref_axis',(0.,0.,1.));
#323=DIRECTION('center_axis',(-1.,0.,0.));
#324=DIRECTION('ref_axis',(0.,1.,0.));
#325=DIRECTION('center_axis',(-1.,0.,0.));
#326=DIRECTION('ref_axis',(0.,0.,1.));
#327=DIRECTION('center_axis',(-1.,0.,0.));
#328=DIRECTION('ref_axis',(0.,1.,0.));
#329=DIRECTION('center_axis',(1.,0.,0.));
#330=DIRECTION('ref_axis',(0.,0.,-1.));
#331=DIRECTION('center_axis',(-1.,0.,0.));
#332=DIRECTION('ref_axis',(0.,0.,1.));
#333=DIRECTION('center_axis',(-1.,0.,0.));
#334=DIRECTION('ref_axis',(0.,0.,1.));
#335=DIRECTION('center_axis',(-1.,0.,0.));
#336=DIRECTION('ref_axis',(0.,1.,0.));
#337=DIRECTION('center_axis',(1.,0.,0.));
#338=DIRECTION('ref_axis',(0.,0.,-1.));
#339=DIRECTION('center_axis',(-1.,0.,0.));
#340=DIRECTION('ref_axis',(0.,0.,1.));
#341=DIRECTION('center_axis',(-1.,0.,0.));
#342=DIRECTION('ref_axis',(0.,0.,1.));
#343=DIRECTION('center_axis',(-1.,0.,0.));
#344=DIRECTION('ref_axis',(0.,1.,0.));
#345=DIRECTION('center_axis',(-1.,0.,0.));
#346=DIRECTION('ref_axis',(0.,1.,0.));
#347=DIRECTION('center_axis',(1.,0.,0.));
#348=DIRECTION('ref_axis',(0.,1.,0.));
#349=DIRECTION('center_axis',(-1.,0.,0.));
#350=DIRECTION('ref_axis',(0.,0.,1.));
#351=DIRECTION('center_axis',(1.,0.,0.));
#352=DIRECTION('ref_axis',(0.,0.,-1.));
#353=DIRECTION('center_axis',(1.,0.,0.));
#354=DIRECTION('ref_axis',(0.,1.,0.));
#355=DIRECTION('center_axis',(1.,0.,0.));
#356=DIRECTION('ref_axis',(0.,0.,-1.));
#357=DIRECTION('center_axis',(1.,0.,0.));
#358=DIRECTION('ref_axis',(0.,0.,-1.));
#359=DIRECTION('center_axis',(1.,0.,0.));
#360=DIRECTION('ref_axis',(0.,1.,0.));
#361=CARTESIAN_POINT('',(0.,0.,0.));
#362=CARTESIAN_POINT('Origin',(-42.,0.,0.));
#363=CARTESIAN_POINT('',(-42.,6.50000000000003,3.97997064992275E-16));
#364=CARTESIAN_POINT('Origin',(-42.,0.,0.));
#365=CARTESIAN_POINT('',(-43.,7.50000000000003,2.29613691341697E-15));
#366=CARTESIAN_POINT('Origin',(-43.,0.,0.));
#367=CARTESIAN_POINT('Origin',(-39.,0.,0.));
#368=CARTESIAN_POINT('',(-35.,6.50000000000003,0.));
#369=CARTESIAN_POINT('Origin',(-35.,0.,0.));
#370=CARTESIAN_POINT('Origin',(-43.,9.,0.));
#371=CARTESIAN_POINT('',(-43.,9.,0.));
#372=CARTESIAN_POINT('Origin',(-43.,0.,0.));
#373=CARTESIAN_POINT('Origin',(-44.5,0.,0.));
#374=CARTESIAN_POINT('',(-46.,9.,0.));
#375=CARTESIAN_POINT('Origin',(-46.,0.,0.));
#376=CARTESIAN_POINT('Origin',(-46.,11.25,0.));
#377=CARTESIAN_POINT('',(-46.,11.25,0.));
#378=CARTESIAN_POINT('Origin',(-46.,0.,0.));
#379=CARTESIAN_POINT('Origin',(-48.792050619873,0.,0.));
#380=CARTESIAN_POINT('',(-51.584101239746,9.75374458235642,0.));
#381=CARTESIAN_POINT('Origin',(-51.584101239746,0.,0.));
#382=CARTESIAN_POINT('Origin',(-51.792050619873,0.,0.));
#383=CARTESIAN_POINT('',(-52.,5.,0.));
#384=CARTESIAN_POINT('Origin',(-52.,0.,0.));
#385=CARTESIAN_POINT('Origin',(-18.,9.75,0.));
#386=CARTESIAN_POINT('',(-18.,7.48670736541742,0.));
#387=CARTESIAN_POINT('Origin',(-18.,0.,0.));
#388=CARTESIAN_POINT('',(-18.,6.75,0.));
#389=CARTESIAN_POINT('Origin',(-18.,0.,0.));
#390=CARTESIAN_POINT('Origin',(-24.,7.48670736541742,0.));
#391=CARTESIAN_POINT('',(-24.,-7.5,9.18485099360515E-16));
#392=CARTESIAN_POINT('Origin',(-24.,0.,0.));
#393=CARTESIAN_POINT('',(-24.,7.48670736541742,0.));
#394=CARTESIAN_POINT('Origin',(-24.,0.,0.));
#395=CARTESIAN_POINT('Origin',(-21.,0.,0.));
#396=CARTESIAN_POINT('Origin',(-12.,9.75,0.));
#397=CARTESIAN_POINT('',(-12.,7.48670736541742,0.));
#398=CARTESIAN_POINT('Origin',(-12.,0.,0.));
#399=CARTESIAN_POINT('',(-12.,6.75,0.));
#400=CARTESIAN_POINT('Origin',(-12.,0.,0.));
#401=CARTESIAN_POINT('Origin',(-15.,0.,0.));
#402=CARTESIAN_POINT('Origin',(-6.,9.75,0.));
#403=CARTESIAN_POINT('',(-6.,7.48670736541742,0.));
#404=CARTESIAN_POINT('Origin',(-6.,0.,0.));
#405=CARTESIAN_POINT('',(-6.,6.75,0.));
#406=CARTESIAN_POINT('Origin',(-6.,0.,0.));
#407=CARTESIAN_POINT('Origin',(-9.,0.,0.));
#408=CARTESIAN_POINT('Origin',(-3.,0.,0.));
#409=CARTESIAN_POINT('',(0.,6.75,0.));
#410=CARTESIAN_POINT('Origin',(-1.11022302462516E-15,0.,0.));
#411=CARTESIAN_POINT('Origin',(-35.,7.5,0.));
#412=CARTESIAN_POINT('',(-35.,7.5,0.));
#413=CARTESIAN_POINT('Origin',(-35.,0.,0.));
#414=CARTESIAN_POINT('Origin',(-17.5,0.,0.));
#415=CARTESIAN_POINT('Origin',(-9.18485099360515E-16,5.,0.));
#416=CARTESIAN_POINT('',(-9.18485099360515E-16,5.,0.));
#417=CARTESIAN_POINT('Origin',(0.,0.,0.));
#418=CARTESIAN_POINT('Origin',(-17.5,0.,0.));
#419=UNCERTAINTY_MEASURE_WITH_UNIT(LENGTH_MEASURE(0.01),#423,
'DISTANCE_ACCURACY_VALUE',
'Maximum model space distance between geometric entities at asserted c
onnectivities');
#420=UNCERTAINTY_MEASURE_WITH_UNIT(LENGTH_MEASURE(1.E-6),#423,
'DISTANCE_ACCURACY_VALUE',
'Maximum model space distance between geometric entities at asserted c
onnectivities');
#421=(
GEOMETRIC_REPRESENTATION_CONTEXT(3)
GLOBAL_UNCERTAINTY_ASSIGNED_CONTEXT((#419))
GLOBAL_UNIT_ASSIGNED_CONTEXT((#423,#426,#424))
REPRESENTATION_CONTEXT('','3D')
);
#422=(
GEOMETRIC_REPRESENTATION_CONTEXT(3)
GLOBAL_UNCERTAINTY_ASSIGNED_CONTEXT((#420))
GLOBAL_UNIT_ASSIGNED_CONTEXT((#423,#426,#424))
REPRESENTATION_CONTEXT('','3D')
);
#423=(
LENGTH_UNIT()
NAMED_UNIT(*)
SI_UNIT(.MILLI.,.METRE.)
);
#424=(
NAMED_UNIT(*)
SI_UNIT($,.STERADIAN.)
SOLID_ANGLE_UNIT()
);
#425=DIMENSIONAL_EXPONENTS(0.,0.,0.,0.,0.,0.,0.);
#426=(
CONVERSION_BASED_UNIT('degree',#428)
NAMED_UNIT(#425)
PLANE_ANGLE_UNIT()
);
#427=(
NAMED_UNIT(*)
PLANE_ANGLE_UNIT()
SI_UNIT($,.RADIAN.)
);
#428=PLANE_ANGLE_MEASURE_WITH_UNIT(PLANE_ANGLE_MEASURE(0.01745329252),#427);
#429=SHAPE_DEFINITION_REPRESENTATION(#430,#431);
#430=PRODUCT_DEFINITION_SHAPE('',$,#433);
#431=SHAPE_REPRESENTATION('',(#244),#421);
#432=DESIGN_CONTEXT('part definition',#437,'design');
#433=PRODUCT_DEFINITION('26040010000','26040010000',#434,#432);
#434=PRODUCT_DEFINITION_FORMATION('',$,#439);
#435=PRODUCT_RELATED_PRODUCT_CATEGORY('26040010000','26040010000',(#439));
#436=APPLICATION_PROTOCOL_DEFINITION('international standard',
'ap203_configuration_controlled_3d_design_of_mechanical_parts_and_asse
mblies_mim_lf',2004,#437);
#437=APPLICATION_CONTEXT(
'Configuration Controlled 3D Design of Mechanical Parts and Assemblies');
#438=MECHANICAL_CONTEXT('part definition',#437,'mechanical');
#439=PRODUCT('26040010000','26040010000',$,(#438));
#440=PRESENTATION_STYLE_ASSIGNMENT((#441));
#441=SURFACE_STYLE_USAGE(.BOTH.,#442);
#442=SURFACE_SIDE_STYLE($,(#443));
#443=SURFACE_STYLE_FILL_AREA(#444);
#444=FILL_AREA_STYLE($,(#445));
#445=FILL_AREA_STYLE_COLOUR($,#446);
#446=COLOUR_RGB('',0.745098039215686,0.737254901960784,0.729411764705882);
ENDSEC;
END-ISO-10303-21;
