ISO-10303-21;
HEADER;
/* Generated by software containing ST-Developer
 * from STEP Tools, Inc. (www.steptools.com) 
 */

FILE_DESCRIPTION(
/* description */ (''),
/* implementation_level */ '2;1');

FILE_NAME(
/* name */ 
'C:\\Vault_Workspace\\DATA\\Katalog Bupospol\\2 Potrubn\X\ED d\X\EDly\\
2.6 Hadicov\X\E9 n\X\E1stavce\\26040\\26040\\26040015000.stp',
/* time_stamp */ '2016-03-08T11:45:58+01:00',
/* author */ ('Struska'),
/* organization */ ('BUPOSPOL'),
/* preprocessor_version */ 'ST-DEVELOPER v15.6',
/* originating_system */ 'Autodesk Inventor 2015',
/* authorisation */ '');

FILE_SCHEMA (('CONFIG_CONTROL_DESIGN'));
ENDSEC;

DATA;
#10=MECHANICAL_DESIGN_GEOMETRIC_PRESENTATION_REPRESENTATION('',(#240,#235,
#241,#234,#233,#239,#237,#232,#231,#230,#229,#228,#238,#227,#226,#225,#224,
#236,#242,#243,#244,#245),#464);
#11=SHAPE_REPRESENTATION_RELATIONSHIP('SRR','None',#473,#12);
#12=ADVANCED_BREP_SHAPE_REPRESENTATION($,(#13),#463);
#13=MANIFOLD_SOLID_BREP('T\X2\011B\X0\leso1',#267);
#14=CONICAL_SURFACE('',#280,13.5018722911782,15.);
#15=CONICAL_SURFACE('',#282,10.3768722911782,85.);
#16=CONICAL_SURFACE('',#290,10.0408174517712,10.);
#17=CONICAL_SURFACE('',#294,10.0408174517712,10.);
#18=CONICAL_SURFACE('',#298,10.0408174517712,10.);
#19=CONICAL_SURFACE('',#302,10.0408174517712,10.);
#20=CONICAL_SURFACE('',#303,10.0408174517712,10.);
#21=PLANE('',#274);
#22=PLANE('',#278);
#23=PLANE('',#284);
#24=PLANE('',#287);
#25=PLANE('',#291);
#26=PLANE('',#295);
#27=PLANE('',#299);
#28=PLANE('',#305);
#29=PLANE('',#308);
#30=CYLINDRICAL_SURFACE('',#272,9.50000000000003);
#31=CYLINDRICAL_SURFACE('',#276,12.);
#32=CYLINDRICAL_SURFACE('',#307,10.5);
#33=CYLINDRICAL_SURFACE('',#310,8.);
#34=FACE_BOUND('',#77,.T.);
#35=FACE_BOUND('',#79,.T.);
#36=FACE_BOUND('',#81,.T.);
#37=FACE_BOUND('',#83,.T.);
#38=FACE_BOUND('',#85,.T.);
#39=FACE_BOUND('',#87,.T.);
#40=FACE_BOUND('',#89,.T.);
#41=FACE_BOUND('',#91,.T.);
#42=FACE_BOUND('',#93,.T.);
#43=FACE_BOUND('',#95,.T.);
#44=FACE_BOUND('',#97,.T.);
#45=FACE_BOUND('',#99,.T.);
#46=FACE_BOUND('',#101,.T.);
#47=FACE_BOUND('',#103,.T.);
#48=FACE_BOUND('',#105,.T.);
#49=FACE_BOUND('',#107,.T.);
#50=FACE_BOUND('',#109,.T.);
#51=FACE_BOUND('',#111,.T.);
#52=FACE_BOUND('',#113,.T.);
#53=FACE_BOUND('',#115,.T.);
#54=FACE_BOUND('',#117,.T.);
#55=FACE_OUTER_BOUND('',#76,.T.);
#56=FACE_OUTER_BOUND('',#78,.T.);
#57=FACE_OUTER_BOUND('',#80,.T.);
#58=FACE_OUTER_BOUND('',#82,.T.);
#59=FACE_OUTER_BOUND('',#84,.T.);
#60=FACE_OUTER_BOUND('',#86,.T.);
#61=FACE_OUTER_BOUND('',#88,.T.);
#62=FACE_OUTER_BOUND('',#90,.T.);
#63=FACE_OUTER_BOUND('',#92,.T.);
#64=FACE_OUTER_BOUND('',#94,.T.);
#65=FACE_OUTER_BOUND('',#96,.T.);
#66=FACE_OUTER_BOUND('',#98,.T.);
#67=FACE_OUTER_BOUND('',#100,.T.);
#68=FACE_OUTER_BOUND('',#102,.T.);
#69=FACE_OUTER_BOUND('',#104,.T.);
#70=FACE_OUTER_BOUND('',#106,.T.);
#71=FACE_OUTER_BOUND('',#108,.T.);
#72=FACE_OUTER_BOUND('',#110,.T.);
#73=FACE_OUTER_BOUND('',#112,.T.);
#74=FACE_OUTER_BOUND('',#114,.T.);
#75=FACE_OUTER_BOUND('',#116,.T.);
#76=EDGE_LOOP('',(#181));
#77=EDGE_LOOP('',(#182));
#78=EDGE_LOOP('',(#183));
#79=EDGE_LOOP('',(#184));
#80=EDGE_LOOP('',(#185));
#81=EDGE_LOOP('',(#186));
#82=EDGE_LOOP('',(#187));
#83=EDGE_LOOP('',(#188));
#84=EDGE_LOOP('',(#189));
#85=EDGE_LOOP('',(#190));
#86=EDGE_LOOP('',(#191));
#87=EDGE_LOOP('',(#192));
#88=EDGE_LOOP('',(#193));
#89=EDGE_LOOP('',(#194));
#90=EDGE_LOOP('',(#195));
#91=EDGE_LOOP('',(#196));
#92=EDGE_LOOP('',(#197));
#93=EDGE_LOOP('',(#198));
#94=EDGE_LOOP('',(#199));
#95=EDGE_LOOP('',(#200));
#96=EDGE_LOOP('',(#201));
#97=EDGE_LOOP('',(#202));
#98=EDGE_LOOP('',(#203));
#99=EDGE_LOOP('',(#204));
#100=EDGE_LOOP('',(#205));
#101=EDGE_LOOP('',(#206));
#102=EDGE_LOOP('',(#207));
#103=EDGE_LOOP('',(#208));
#104=EDGE_LOOP('',(#209));
#105=EDGE_LOOP('',(#210));
#106=EDGE_LOOP('',(#211));
#107=EDGE_LOOP('',(#212));
#108=EDGE_LOOP('',(#213));
#109=EDGE_LOOP('',(#214));
#110=EDGE_LOOP('',(#215));
#111=EDGE_LOOP('',(#216));
#112=EDGE_LOOP('',(#217));
#113=EDGE_LOOP('',(#218));
#114=EDGE_LOOP('',(#219));
#115=EDGE_LOOP('',(#220));
#116=EDGE_LOOP('',(#221));
#117=EDGE_LOOP('',(#222));
#118=CIRCLE('',#270,9.50000000000003);
#119=CIRCLE('',#271,10.5);
#120=CIRCLE('',#273,9.50000000000003);
#121=CIRCLE('',#275,12.);
#122=CIRCLE('',#277,12.);
#123=CIRCLE('',#279,14.25);
#124=CIRCLE('',#281,12.7537445823564);
#125=CIRCLE('',#283,8.);
#126=CIRCLE('',#285,10.4816349035423);
#127=CIRCLE('',#286,9.6);
#128=CIRCLE('',#288,10.5);
#129=CIRCLE('',#289,10.4816349035423);
#130=CIRCLE('',#292,10.4816349035423);
#131=CIRCLE('',#293,9.6);
#132=CIRCLE('',#296,10.4816349035423);
#133=CIRCLE('',#297,9.6);
#134=CIRCLE('',#300,10.4816349035423);
#135=CIRCLE('',#301,9.6);
#136=CIRCLE('',#304,9.6);
#137=CIRCLE('',#306,10.5);
#138=CIRCLE('',#309,8.);
#139=VERTEX_POINT('',#399);
#140=VERTEX_POINT('',#401);
#141=VERTEX_POINT('',#404);
#142=VERTEX_POINT('',#407);
#143=VERTEX_POINT('',#410);
#144=VERTEX_POINT('',#413);
#145=VERTEX_POINT('',#416);
#146=VERTEX_POINT('',#419);
#147=VERTEX_POINT('',#422);
#148=VERTEX_POINT('',#424);
#149=VERTEX_POINT('',#427);
#150=VERTEX_POINT('',#429);
#151=VERTEX_POINT('',#433);
#152=VERTEX_POINT('',#435);
#153=VERTEX_POINT('',#439);
#154=VERTEX_POINT('',#441);
#155=VERTEX_POINT('',#445);
#156=VERTEX_POINT('',#447);
#157=VERTEX_POINT('',#451);
#158=VERTEX_POINT('',#454);
#159=VERTEX_POINT('',#458);
#160=EDGE_CURVE('',#139,#139,#118,.T.);
#161=EDGE_CURVE('',#140,#140,#119,.T.);
#162=EDGE_CURVE('',#141,#141,#120,.T.);
#163=EDGE_CURVE('',#142,#142,#121,.T.);
#164=EDGE_CURVE('',#143,#143,#122,.T.);
#165=EDGE_CURVE('',#144,#144,#123,.T.);
#166=EDGE_CURVE('',#145,#145,#124,.T.);
#167=EDGE_CURVE('',#146,#146,#125,.T.);
#168=EDGE_CURVE('',#147,#147,#126,.T.);
#169=EDGE_CURVE('',#148,#148,#127,.T.);
#170=EDGE_CURVE('',#149,#149,#128,.T.);
#171=EDGE_CURVE('',#150,#150,#129,.T.);
#172=EDGE_CURVE('',#151,#151,#130,.T.);
#173=EDGE_CURVE('',#152,#152,#131,.T.);
#174=EDGE_CURVE('',#153,#153,#132,.T.);
#175=EDGE_CURVE('',#154,#154,#133,.T.);
#176=EDGE_CURVE('',#155,#155,#134,.T.);
#177=EDGE_CURVE('',#156,#156,#135,.T.);
#178=EDGE_CURVE('',#157,#157,#136,.T.);
#179=EDGE_CURVE('',#158,#158,#137,.T.);
#180=EDGE_CURVE('',#159,#159,#138,.T.);
#181=ORIENTED_EDGE('',*,*,#160,.T.);
#182=ORIENTED_EDGE('',*,*,#161,.T.);
#183=ORIENTED_EDGE('',*,*,#162,.F.);
#184=ORIENTED_EDGE('',*,*,#160,.F.);
#185=ORIENTED_EDGE('',*,*,#163,.F.);
#186=ORIENTED_EDGE('',*,*,#161,.F.);
#187=ORIENTED_EDGE('',*,*,#164,.F.);
#188=ORIENTED_EDGE('',*,*,#163,.T.);
#189=ORIENTED_EDGE('',*,*,#165,.F.);
#190=ORIENTED_EDGE('',*,*,#164,.T.);
#191=ORIENTED_EDGE('',*,*,#166,.F.);
#192=ORIENTED_EDGE('',*,*,#165,.T.);
#193=ORIENTED_EDGE('',*,*,#167,.F.);
#194=ORIENTED_EDGE('',*,*,#166,.T.);
#195=ORIENTED_EDGE('',*,*,#168,.T.);
#196=ORIENTED_EDGE('',*,*,#169,.F.);
#197=ORIENTED_EDGE('',*,*,#170,.F.);
#198=ORIENTED_EDGE('',*,*,#171,.T.);
#199=ORIENTED_EDGE('',*,*,#169,.T.);
#200=ORIENTED_EDGE('',*,*,#171,.F.);
#201=ORIENTED_EDGE('',*,*,#172,.T.);
#202=ORIENTED_EDGE('',*,*,#173,.F.);
#203=ORIENTED_EDGE('',*,*,#173,.T.);
#204=ORIENTED_EDGE('',*,*,#168,.F.);
#205=ORIENTED_EDGE('',*,*,#174,.T.);
#206=ORIENTED_EDGE('',*,*,#175,.F.);
#207=ORIENTED_EDGE('',*,*,#175,.T.);
#208=ORIENTED_EDGE('',*,*,#172,.F.);
#209=ORIENTED_EDGE('',*,*,#176,.T.);
#210=ORIENTED_EDGE('',*,*,#177,.F.);
#211=ORIENTED_EDGE('',*,*,#177,.T.);
#212=ORIENTED_EDGE('',*,*,#174,.F.);
#213=ORIENTED_EDGE('',*,*,#178,.F.);
#214=ORIENTED_EDGE('',*,*,#176,.F.);
#215=ORIENTED_EDGE('',*,*,#179,.F.);
#216=ORIENTED_EDGE('',*,*,#162,.T.);
#217=ORIENTED_EDGE('',*,*,#170,.T.);
#218=ORIENTED_EDGE('',*,*,#179,.T.);
#219=ORIENTED_EDGE('',*,*,#178,.T.);
#220=ORIENTED_EDGE('',*,*,#180,.F.);
#221=ORIENTED_EDGE('',*,*,#167,.T.);
#222=ORIENTED_EDGE('',*,*,#180,.T.);
#223=TOROIDAL_SURFACE('',#269,10.5,1.);
#224=STYLED_ITEM('',(#482),#246);
#225=STYLED_ITEM('',(#482),#247);
#226=STYLED_ITEM('',(#482),#248);
#227=STYLED_ITEM('',(#482),#249);
#228=STYLED_ITEM('',(#482),#250);
#229=STYLED_ITEM('',(#482),#251);
#230=STYLED_ITEM('',(#482),#252);
#231=STYLED_ITEM('',(#482),#253);
#232=STYLED_ITEM('',(#482),#254);
#233=STYLED_ITEM('',(#482),#255);
#234=STYLED_ITEM('',(#482),#256);
#235=STYLED_ITEM('',(#482),#257);
#236=STYLED_ITEM('',(#482),#258);
#237=STYLED_ITEM('',(#482),#259);
#238=STYLED_ITEM('',(#482),#260);
#239=STYLED_ITEM('',(#482),#261);
#240=STYLED_ITEM('',(#482),#262);
#241=STYLED_ITEM('',(#482),#263);
#242=STYLED_ITEM('',(#482),#264);
#243=STYLED_ITEM('',(#482),#265);
#244=STYLED_ITEM('',(#482),#266);
#245=STYLED_ITEM('',(#482),#13);
#246=ADVANCED_FACE('',(#55,#34),#223,.F.);
#247=ADVANCED_FACE('',(#56,#35),#30,.T.);
#248=ADVANCED_FACE('',(#57,#36),#21,.T.);
#249=ADVANCED_FACE('',(#58,#37),#31,.T.);
#250=ADVANCED_FACE('',(#59,#38),#22,.T.);
#251=ADVANCED_FACE('',(#60,#39),#14,.T.);
#252=ADVANCED_FACE('',(#61,#40),#15,.T.);
#253=ADVANCED_FACE('',(#62,#41),#23,.F.);
#254=ADVANCED_FACE('',(#63,#42),#24,.F.);
#255=ADVANCED_FACE('',(#64,#43),#16,.T.);
#256=ADVANCED_FACE('',(#65,#44),#25,.F.);
#257=ADVANCED_FACE('',(#66,#45),#17,.T.);
#258=ADVANCED_FACE('',(#67,#46),#26,.F.);
#259=ADVANCED_FACE('',(#68,#47),#18,.T.);
#260=ADVANCED_FACE('',(#69,#48),#27,.F.);
#261=ADVANCED_FACE('',(#70,#49),#19,.T.);
#262=ADVANCED_FACE('',(#71,#50),#20,.T.);
#263=ADVANCED_FACE('',(#72,#51),#28,.T.);
#264=ADVANCED_FACE('',(#73,#52),#32,.T.);
#265=ADVANCED_FACE('',(#74,#53),#29,.T.);
#266=ADVANCED_FACE('',(#75,#54),#33,.F.);
#267=CLOSED_SHELL('',(#246,#247,#248,#249,#250,#251,#252,#253,#254,#255,
#256,#257,#258,#259,#260,#261,#262,#263,#264,#265,#266));
#268=AXIS2_PLACEMENT_3D('placement',#397,#311,#312);
#269=AXIS2_PLACEMENT_3D('',#398,#313,#314);
#270=AXIS2_PLACEMENT_3D('',#400,#315,#316);
#271=AXIS2_PLACEMENT_3D('',#402,#317,#318);
#272=AXIS2_PLACEMENT_3D('',#403,#319,#320);
#273=AXIS2_PLACEMENT_3D('',#405,#321,#322);
#274=AXIS2_PLACEMENT_3D('',#406,#323,#324);
#275=AXIS2_PLACEMENT_3D('',#408,#325,#326);
#276=AXIS2_PLACEMENT_3D('',#409,#327,#328);
#277=AXIS2_PLACEMENT_3D('',#411,#329,#330);
#278=AXIS2_PLACEMENT_3D('',#412,#331,#332);
#279=AXIS2_PLACEMENT_3D('',#414,#333,#334);
#280=AXIS2_PLACEMENT_3D('',#415,#335,#336);
#281=AXIS2_PLACEMENT_3D('',#417,#337,#338);
#282=AXIS2_PLACEMENT_3D('',#418,#339,#340);
#283=AXIS2_PLACEMENT_3D('',#420,#341,#342);
#284=AXIS2_PLACEMENT_3D('',#421,#343,#344);
#285=AXIS2_PLACEMENT_3D('',#423,#345,#346);
#286=AXIS2_PLACEMENT_3D('',#425,#347,#348);
#287=AXIS2_PLACEMENT_3D('',#426,#349,#350);
#288=AXIS2_PLACEMENT_3D('',#428,#351,#352);
#289=AXIS2_PLACEMENT_3D('',#430,#353,#354);
#290=AXIS2_PLACEMENT_3D('',#431,#355,#356);
#291=AXIS2_PLACEMENT_3D('',#432,#357,#358);
#292=AXIS2_PLACEMENT_3D('',#434,#359,#360);
#293=AXIS2_PLACEMENT_3D('',#436,#361,#362);
#294=AXIS2_PLACEMENT_3D('',#437,#363,#364);
#295=AXIS2_PLACEMENT_3D('',#438,#365,#366);
#296=AXIS2_PLACEMENT_3D('',#440,#367,#368);
#297=AXIS2_PLACEMENT_3D('',#442,#369,#370);
#298=AXIS2_PLACEMENT_3D('',#443,#371,#372);
#299=AXIS2_PLACEMENT_3D('',#444,#373,#374);
#300=AXIS2_PLACEMENT_3D('',#446,#375,#376);
#301=AXIS2_PLACEMENT_3D('',#448,#377,#378);
#302=AXIS2_PLACEMENT_3D('',#449,#379,#380);
#303=AXIS2_PLACEMENT_3D('',#450,#381,#382);
#304=AXIS2_PLACEMENT_3D('',#452,#383,#384);
#305=AXIS2_PLACEMENT_3D('',#453,#385,#386);
#306=AXIS2_PLACEMENT_3D('',#455,#387,#388);
#307=AXIS2_PLACEMENT_3D('',#456,#389,#390);
#308=AXIS2_PLACEMENT_3D('',#457,#391,#392);
#309=AXIS2_PLACEMENT_3D('',#459,#393,#394);
#310=AXIS2_PLACEMENT_3D('',#460,#395,#396);
#311=DIRECTION('axis',(0.,0.,1.));
#312=DIRECTION('refdir',(1.,0.,0.));
#313=DIRECTION('center_axis',(-1.,0.,0.));
#314=DIRECTION('ref_axis',(0.,0.,1.));
#315=DIRECTION('center_axis',(-1.,0.,0.));
#316=DIRECTION('ref_axis',(0.,-1.,-1.83690953073357E-16));
#317=DIRECTION('center_axis',(1.,0.,0.));
#318=DIRECTION('ref_axis',(0.,-1.,-1.83690953073357E-16));
#319=DIRECTION('center_axis',(-1.,0.,0.));
#320=DIRECTION('ref_axis',(0.,1.,0.));
#321=DIRECTION('center_axis',(1.,0.,0.));
#322=DIRECTION('ref_axis',(0.,1.,0.));
#323=DIRECTION('center_axis',(1.,0.,0.));
#324=DIRECTION('ref_axis',(0.,0.,-1.));
#325=DIRECTION('center_axis',(-1.,0.,0.));
#326=DIRECTION('ref_axis',(0.,0.,1.));
#327=DIRECTION('center_axis',(-1.,0.,0.));
#328=DIRECTION('ref_axis',(0.,1.,0.));
#329=DIRECTION('center_axis',(-1.,0.,0.));
#330=DIRECTION('ref_axis',(0.,0.,1.));
#331=DIRECTION('center_axis',(1.,0.,0.));
#332=DIRECTION('ref_axis',(0.,0.,-1.));
#333=DIRECTION('center_axis',(-1.,0.,0.));
#334=DIRECTION('ref_axis',(0.,0.,1.));
#335=DIRECTION('center_axis',(1.,0.,0.));
#336=DIRECTION('ref_axis',(0.,1.,0.));
#337=DIRECTION('center_axis',(-1.,0.,0.));
#338=DIRECTION('ref_axis',(0.,0.,1.));
#339=DIRECTION('center_axis',(1.,0.,0.));
#340=DIRECTION('ref_axis',(0.,1.,0.));
#341=DIRECTION('center_axis',(-1.,0.,0.));
#342=DIRECTION('ref_axis',(0.,0.,1.));
#343=DIRECTION('center_axis',(1.,0.,0.));
#344=DIRECTION('ref_axis',(0.,0.,-1.));
#345=DIRECTION('center_axis',(-1.,0.,0.));
#346=DIRECTION('ref_axis',(0.,0.,1.));
#347=DIRECTION('center_axis',(-1.,0.,0.));
#348=DIRECTION('ref_axis',(0.,0.,1.));
#349=DIRECTION('center_axis',(-1.,0.,0.));
#350=DIRECTION('ref_axis',(0.,0.,1.));
#351=DIRECTION('center_axis',(-1.,0.,0.));
#352=DIRECTION('ref_axis',(0.,1.,0.));
#353=DIRECTION('center_axis',(-1.,0.,0.));
#354=DIRECTION('ref_axis',(0.,0.,1.));
#355=DIRECTION('center_axis',(-1.,0.,0.));
#356=DIRECTION('ref_axis',(0.,1.,0.));
#357=DIRECTION('center_axis',(1.,0.,0.));
#358=DIRECTION('ref_axis',(0.,0.,-1.));
#359=DIRECTION('center_axis',(-1.,0.,0.));
#360=DIRECTION('ref_axis',(0.,0.,1.));
#361=DIRECTION('center_axis',(-1.,0.,0.));
#362=DIRECTION('ref_axis',(0.,0.,1.));
#363=DIRECTION('center_axis',(-1.,0.,0.));
#364=DIRECTION('ref_axis',(0.,1.,0.));
#365=DIRECTION('center_axis',(1.,0.,0.));
#366=DIRECTION('ref_axis',(0.,0.,-1.));
#367=DIRECTION('center_axis',(-1.,0.,0.));
#368=DIRECTION('ref_axis',(0.,0.,1.));
#369=DIRECTION('center_axis',(-1.,0.,0.));
#370=DIRECTION('ref_axis',(0.,0.,1.));
#371=DIRECTION('center_axis',(-1.,0.,0.));
#372=DIRECTION('ref_axis',(0.,1.,0.));
#373=DIRECTION('center_axis',(1.,0.,0.));
#374=DIRECTION('ref_axis',(0.,0.,-1.));
#375=DIRECTION('center_axis',(-1.,0.,0.));
#376=DIRECTION('ref_axis',(0.,0.,1.));
#377=DIRECTION('center_axis',(-1.,0.,0.));
#378=DIRECTION('ref_axis',(0.,0.,1.));
#379=DIRECTION('center_axis',(-1.,0.,0.));
#380=DIRECTION('ref_axis',(0.,1.,0.));
#381=DIRECTION('center_axis',(-1.,0.,0.));
#382=DIRECTION('ref_axis',(0.,1.,0.));
#383=DIRECTION('center_axis',(1.,0.,0.));
#384=DIRECTION('ref_axis',(0.,1.,0.));
#385=DIRECTION('center_axis',(-1.,0.,0.));
#386=DIRECTION('ref_axis',(0.,0.,1.));
#387=DIRECTION('center_axis',(1.,0.,0.));
#388=DIRECTION('ref_axis',(0.,0.,-1.));
#389=DIRECTION('center_axis',(1.,0.,0.));
#390=DIRECTION('ref_axis',(0.,1.,0.));
#391=DIRECTION('center_axis',(1.,0.,0.));
#392=DIRECTION('ref_axis',(0.,0.,-1.));
#393=DIRECTION('center_axis',(1.,0.,0.));
#394=DIRECTION('ref_axis',(0.,0.,-1.));
#395=DIRECTION('center_axis',(1.,0.,0.));
#396=DIRECTION('ref_axis',(0.,1.,0.));
#397=CARTESIAN_POINT('',(0.,0.,0.));
#398=CARTESIAN_POINT('Origin',(-52.,0.,0.));
#399=CARTESIAN_POINT('',(-52.,9.50000000000003,5.81688018065631E-16));
#400=CARTESIAN_POINT('Origin',(-52.,0.,0.));
#401=CARTESIAN_POINT('',(-53.,10.5,3.21459167878375E-15));
#402=CARTESIAN_POINT('Origin',(-53.,0.,0.));
#403=CARTESIAN_POINT('Origin',(-49.,0.,0.));
#404=CARTESIAN_POINT('',(-45.,9.50000000000003,0.));
#405=CARTESIAN_POINT('Origin',(-45.,0.,0.));
#406=CARTESIAN_POINT('Origin',(-53.,12.,0.));
#407=CARTESIAN_POINT('',(-53.,12.,0.));
#408=CARTESIAN_POINT('Origin',(-53.,0.,0.));
#409=CARTESIAN_POINT('Origin',(-54.5,0.,0.));
#410=CARTESIAN_POINT('',(-56.,12.,0.));
#411=CARTESIAN_POINT('Origin',(-56.,0.,0.));
#412=CARTESIAN_POINT('Origin',(-56.,14.25,0.));
#413=CARTESIAN_POINT('',(-56.,14.25,0.));
#414=CARTESIAN_POINT('Origin',(-56.,0.,0.));
#415=CARTESIAN_POINT('Origin',(-58.792050619873,0.,0.));
#416=CARTESIAN_POINT('',(-61.584101239746,12.7537445823564,0.));
#417=CARTESIAN_POINT('Origin',(-61.584101239746,0.,0.));
#418=CARTESIAN_POINT('Origin',(-61.792050619873,0.,0.));
#419=CARTESIAN_POINT('',(-62.,8.,0.));
#420=CARTESIAN_POINT('Origin',(-62.,0.,0.));
#421=CARTESIAN_POINT('Origin',(-20.,12.6,0.));
#422=CARTESIAN_POINT('',(-20.,10.4816349035423,0.));
#423=CARTESIAN_POINT('Origin',(-20.,0.,0.));
#424=CARTESIAN_POINT('',(-20.,9.6,0.));
#425=CARTESIAN_POINT('Origin',(-20.,0.,0.));
#426=CARTESIAN_POINT('Origin',(-25.,10.4816349035423,0.));
#427=CARTESIAN_POINT('',(-25.,-10.5,1.28587913910472E-15));
#428=CARTESIAN_POINT('Origin',(-25.,0.,0.));
#429=CARTESIAN_POINT('',(-25.,10.4816349035423,0.));
#430=CARTESIAN_POINT('Origin',(-25.,0.,0.));
#431=CARTESIAN_POINT('Origin',(-22.5,0.,0.));
#432=CARTESIAN_POINT('Origin',(-15.,12.6,0.));
#433=CARTESIAN_POINT('',(-15.,10.4816349035423,0.));
#434=CARTESIAN_POINT('Origin',(-15.,0.,0.));
#435=CARTESIAN_POINT('',(-15.,9.6,0.));
#436=CARTESIAN_POINT('Origin',(-15.,0.,0.));
#437=CARTESIAN_POINT('Origin',(-17.5,0.,0.));
#438=CARTESIAN_POINT('Origin',(-10.,12.6,0.));
#439=CARTESIAN_POINT('',(-10.,10.4816349035423,0.));
#440=CARTESIAN_POINT('Origin',(-10.,0.,0.));
#441=CARTESIAN_POINT('',(-10.,9.6,0.));
#442=CARTESIAN_POINT('Origin',(-10.,0.,0.));
#443=CARTESIAN_POINT('Origin',(-12.5,0.,0.));
#444=CARTESIAN_POINT('Origin',(-5.,12.6,0.));
#445=CARTESIAN_POINT('',(-5.,10.4816349035423,0.));
#446=CARTESIAN_POINT('Origin',(-5.,0.,0.));
#447=CARTESIAN_POINT('',(-5.,9.6,0.));
#448=CARTESIAN_POINT('Origin',(-5.,0.,0.));
#449=CARTESIAN_POINT('Origin',(-7.5,0.,0.));
#450=CARTESIAN_POINT('Origin',(-2.5,0.,0.));
#451=CARTESIAN_POINT('',(0.,9.6,0.));
#452=CARTESIAN_POINT('Origin',(-1.38777878078145E-15,0.,0.));
#453=CARTESIAN_POINT('Origin',(-45.,10.5,0.));
#454=CARTESIAN_POINT('',(-45.,10.5,0.));
#455=CARTESIAN_POINT('Origin',(-45.,0.,0.));
#456=CARTESIAN_POINT('Origin',(-22.5,0.,0.));
#457=CARTESIAN_POINT('Origin',(-1.46957615897682E-15,8.,0.));
#458=CARTESIAN_POINT('',(-1.46957615897682E-15,8.,0.));
#459=CARTESIAN_POINT('Origin',(0.,0.,0.));
#460=CARTESIAN_POINT('Origin',(-22.5,0.,0.));
#461=UNCERTAINTY_MEASURE_WITH_UNIT(LENGTH_MEASURE(0.01),#465,
'DISTANCE_ACCURACY_VALUE',
'Maximum model space distance between geometric entities at asserted c
onnectivities');
#462=UNCERTAINTY_MEASURE_WITH_UNIT(LENGTH_MEASURE(1.E-6),#465,
'DISTANCE_ACCURACY_VALUE',
'Maximum model space distance between geometric entities at asserted c
onnectivities');
#463=(
GEOMETRIC_REPRESENTATION_CONTEXT(3)
GLOBAL_UNCERTAINTY_ASSIGNED_CONTEXT((#461))
GLOBAL_UNIT_ASSIGNED_CONTEXT((#465,#468,#466))
REPRESENTATION_CONTEXT('','3D')
);
#464=(
GEOMETRIC_REPRESENTATION_CONTEXT(3)
GLOBAL_UNCERTAINTY_ASSIGNED_CONTEXT((#462))
GLOBAL_UNIT_ASSIGNED_CONTEXT((#465,#468,#466))
REPRESENTATION_CONTEXT('','3D')
);
#465=(
LENGTH_UNIT()
NAMED_UNIT(*)
SI_UNIT(.MILLI.,.METRE.)
);
#466=(
NAMED_UNIT(*)
SI_UNIT($,.STERADIAN.)
SOLID_ANGLE_UNIT()
);
#467=DIMENSIONAL_EXPONENTS(0.,0.,0.,0.,0.,0.,0.);
#468=(
CONVERSION_BASED_UNIT('degree',#470)
NAMED_UNIT(#467)
PLANE_ANGLE_UNIT()
);
#469=(
NAMED_UNIT(*)
PLANE_ANGLE_UNIT()
SI_UNIT($,.RADIAN.)
);
#470=PLANE_ANGLE_MEASURE_WITH_UNIT(PLANE_ANGLE_MEASURE(0.01745329252),#469);
#471=SHAPE_DEFINITION_REPRESENTATION(#472,#473);
#472=PRODUCT_DEFINITION_SHAPE('',$,#475);
#473=SHAPE_REPRESENTATION('',(#268),#463);
#474=DESIGN_CONTEXT('part definition',#479,'design');
#475=PRODUCT_DEFINITION('26040015000','26040015000',#476,#474);
#476=PRODUCT_DEFINITION_FORMATION('',$,#481);
#477=PRODUCT_RELATED_PRODUCT_CATEGORY('26040015000','26040015000',(#481));
#478=APPLICATION_PROTOCOL_DEFINITION('international standard',
'ap203_configuration_controlled_3d_design_of_mechanical_parts_and_asse
mblies_mim_lf',2004,#479);
#479=APPLICATION_CONTEXT(
'Configuration Controlled 3D Design of Mechanical Parts and Assemblies');
#480=MECHANICAL_CONTEXT('part definition',#479,'mechanical');
#481=PRODUCT('26040015000','26040015000',$,(#480));
#482=PRESENTATION_STYLE_ASSIGNMENT((#483));
#483=SURFACE_STYLE_USAGE(.BOTH.,#484);
#484=SURFACE_SIDE_STYLE($,(#485));
#485=SURFACE_STYLE_FILL_AREA(#486);
#486=FILL_AREA_STYLE($,(#487));
#487=FILL_AREA_STYLE_COLOUR($,#488);
#488=COLOUR_RGB('',0.745098039215686,0.737254901960784,0.729411764705882);
ENDSEC;
END-ISO-10303-21;
