ISO-10303-21;
HEADER;
/* Generated by software containing ST-Developer
 * from STEP Tools, Inc. (www.steptools.com) 
 */

FILE_DESCRIPTION(
/* description */ (''),
/* implementation_level */ '2;1');

FILE_NAME(
/* name */ 
'C:\\Vault_Workspace\\DATA\\Katalog Bupospol\\2 Potrubn\X\ED d\X\EDly\\
2.6 Hadicov\X\E9 n\X\E1stavce\\26040\\26040\\26040020000.stp',
/* time_stamp */ '2016-03-08T11:46:02+01:00',
/* author */ ('Struska'),
/* organization */ ('BUPOSPOL'),
/* preprocessor_version */ 'ST-DEVELOPER v15.6',
/* originating_system */ 'Autodesk Inventor 2015',
/* authorisation */ '');

FILE_SCHEMA (('CONFIG_CONTROL_DESIGN'));
ENDSEC;

DATA;
#10=MECHANICAL_DESIGN_GEOMETRIC_PRESENTATION_REPRESENTATION('',(#263,#248,
#260,#249,#259,#245,#250,#251,#261,#252,#257,#253,#254,#262,#246,#255,#256,
#247,#244,#258,#264,#265,#266,#267),#506);
#11=SHAPE_REPRESENTATION_RELATIONSHIP('SRR','None',#515,#12);
#12=ADVANCED_BREP_SHAPE_REPRESENTATION($,(#13),#505);
#13=MANIFOLD_SOLID_BREP('T\X2\011B\X0\leso1',#291);
#14=CONICAL_SURFACE('',#307,17.2514961690518,15.);
#15=CONICAL_SURFACE('',#309,13.1264961690518,85.0000000000001);
#16=CONICAL_SURFACE('',#315,12.0772585311312,6.50000000000005);
#17=CONICAL_SURFACE('',#320,12.0772585311312,6.50000000000005);
#18=CONICAL_SURFACE('',#325,12.0772585311312,6.50000000000005);
#19=CONICAL_SURFACE('',#331,12.0772585311312,6.50000000000005);
#20=CYLINDRICAL_SURFACE('',#299,11.5);
#21=CYLINDRICAL_SURFACE('',#303,15.);
#22=CYLINDRICAL_SURFACE('',#311,10.);
#23=CYLINDRICAL_SURFACE('',#327,12.5);
#24=CYLINDRICAL_SURFACE('',#328,12.5);
#25=CYLINDRICAL_SURFACE('',#329,12.5);
#26=CYLINDRICAL_SURFACE('',#335,12.5);
#27=CYLINDRICAL_SURFACE('',#338,10.25);
#28=TOROIDAL_SURFACE('',#296,12.5,1.);
#29=FACE_BOUND('',#76,.T.);
#30=FACE_BOUND('',#78,.T.);
#31=FACE_BOUND('',#80,.T.);
#32=FACE_BOUND('',#82,.T.);
#33=FACE_BOUND('',#84,.T.);
#34=FACE_BOUND('',#86,.T.);
#35=FACE_BOUND('',#88,.T.);
#36=FACE_BOUND('',#90,.T.);
#37=FACE_BOUND('',#92,.T.);
#38=FACE_BOUND('',#94,.T.);
#39=FACE_BOUND('',#96,.T.);
#40=FACE_BOUND('',#98,.T.);
#41=FACE_BOUND('',#100,.T.);
#42=FACE_BOUND('',#102,.T.);
#43=FACE_BOUND('',#104,.T.);
#44=FACE_BOUND('',#106,.T.);
#45=FACE_BOUND('',#108,.T.);
#46=FACE_BOUND('',#110,.T.);
#47=FACE_BOUND('',#112,.T.);
#48=FACE_BOUND('',#114,.T.);
#49=FACE_BOUND('',#116,.T.);
#50=FACE_BOUND('',#118,.T.);
#51=FACE_BOUND('',#120,.T.);
#52=FACE_OUTER_BOUND('',#75,.T.);
#53=FACE_OUTER_BOUND('',#77,.T.);
#54=FACE_OUTER_BOUND('',#79,.T.);
#55=FACE_OUTER_BOUND('',#81,.T.);
#56=FACE_OUTER_BOUND('',#83,.T.);
#57=FACE_OUTER_BOUND('',#85,.T.);
#58=FACE_OUTER_BOUND('',#87,.T.);
#59=FACE_OUTER_BOUND('',#89,.T.);
#60=FACE_OUTER_BOUND('',#91,.T.);
#61=FACE_OUTER_BOUND('',#93,.T.);
#62=FACE_OUTER_BOUND('',#95,.T.);
#63=FACE_OUTER_BOUND('',#97,.T.);
#64=FACE_OUTER_BOUND('',#99,.T.);
#65=FACE_OUTER_BOUND('',#101,.T.);
#66=FACE_OUTER_BOUND('',#103,.T.);
#67=FACE_OUTER_BOUND('',#105,.T.);
#68=FACE_OUTER_BOUND('',#107,.T.);
#69=FACE_OUTER_BOUND('',#109,.T.);
#70=FACE_OUTER_BOUND('',#111,.T.);
#71=FACE_OUTER_BOUND('',#113,.T.);
#72=FACE_OUTER_BOUND('',#115,.T.);
#73=FACE_OUTER_BOUND('',#117,.T.);
#74=FACE_OUTER_BOUND('',#119,.T.);
#75=EDGE_LOOP('',(#190));
#76=EDGE_LOOP('',(#191));
#77=EDGE_LOOP('',(#192));
#78=EDGE_LOOP('',(#193));
#79=EDGE_LOOP('',(#194));
#80=EDGE_LOOP('',(#195));
#81=EDGE_LOOP('',(#196));
#82=EDGE_LOOP('',(#197));
#83=EDGE_LOOP('',(#198));
#84=EDGE_LOOP('',(#199));
#85=EDGE_LOOP('',(#200));
#86=EDGE_LOOP('',(#201));
#87=EDGE_LOOP('',(#202));
#88=EDGE_LOOP('',(#203));
#89=EDGE_LOOP('',(#204));
#90=EDGE_LOOP('',(#205));
#91=EDGE_LOOP('',(#206));
#92=EDGE_LOOP('',(#207));
#93=EDGE_LOOP('',(#208));
#94=EDGE_LOOP('',(#209));
#95=EDGE_LOOP('',(#210));
#96=EDGE_LOOP('',(#211));
#97=EDGE_LOOP('',(#212));
#98=EDGE_LOOP('',(#213));
#99=EDGE_LOOP('',(#214));
#100=EDGE_LOOP('',(#215));
#101=EDGE_LOOP('',(#216));
#102=EDGE_LOOP('',(#217));
#103=EDGE_LOOP('',(#218));
#104=EDGE_LOOP('',(#219));
#105=EDGE_LOOP('',(#220));
#106=EDGE_LOOP('',(#221));
#107=EDGE_LOOP('',(#222));
#108=EDGE_LOOP('',(#223));
#109=EDGE_LOOP('',(#224));
#110=EDGE_LOOP('',(#225));
#111=EDGE_LOOP('',(#226));
#112=EDGE_LOOP('',(#227));
#113=EDGE_LOOP('',(#228));
#114=EDGE_LOOP('',(#229));
#115=EDGE_LOOP('',(#230));
#116=EDGE_LOOP('',(#231));
#117=EDGE_LOOP('',(#232));
#118=EDGE_LOOP('',(#233));
#119=EDGE_LOOP('',(#234));
#120=EDGE_LOOP('',(#235));
#121=CIRCLE('',#294,10.25);
#122=CIRCLE('',#295,10.);
#123=CIRCLE('',#297,11.5);
#124=CIRCLE('',#298,12.5);
#125=CIRCLE('',#300,11.5);
#126=CIRCLE('',#302,15.);
#127=CIRCLE('',#304,15.);
#128=CIRCLE('',#306,18.25);
#129=CIRCLE('',#308,16.2529923381037);
#130=CIRCLE('',#310,10.);
#131=CIRCLE('',#313,12.5);
#132=CIRCLE('',#314,11.65);
#133=CIRCLE('',#316,12.5);
#134=CIRCLE('',#318,12.5);
#135=CIRCLE('',#319,11.65);
#136=CIRCLE('',#321,12.5);
#137=CIRCLE('',#323,12.5);
#138=CIRCLE('',#324,11.65);
#139=CIRCLE('',#326,12.5);
#140=CIRCLE('',#330,12.5);
#141=CIRCLE('',#332,12.5);
#142=CIRCLE('',#333,11.65);
#143=CIRCLE('',#337,10.25);
#144=VERTEX_POINT('',#435);
#145=VERTEX_POINT('',#437);
#146=VERTEX_POINT('',#440);
#147=VERTEX_POINT('',#442);
#148=VERTEX_POINT('',#445);
#149=VERTEX_POINT('',#448);
#150=VERTEX_POINT('',#451);
#151=VERTEX_POINT('',#454);
#152=VERTEX_POINT('',#457);
#153=VERTEX_POINT('',#460);
#154=VERTEX_POINT('',#464);
#155=VERTEX_POINT('',#466);
#156=VERTEX_POINT('',#469);
#157=VERTEX_POINT('',#472);
#158=VERTEX_POINT('',#474);
#159=VERTEX_POINT('',#477);
#160=VERTEX_POINT('',#480);
#161=VERTEX_POINT('',#482);
#162=VERTEX_POINT('',#485);
#163=VERTEX_POINT('',#490);
#164=VERTEX_POINT('',#493);
#165=VERTEX_POINT('',#495);
#166=VERTEX_POINT('',#500);
#167=EDGE_CURVE('',#144,#144,#121,.T.);
#168=EDGE_CURVE('',#145,#145,#122,.T.);
#169=EDGE_CURVE('',#146,#146,#123,.T.);
#170=EDGE_CURVE('',#147,#147,#124,.T.);
#171=EDGE_CURVE('',#148,#148,#125,.T.);
#172=EDGE_CURVE('',#149,#149,#126,.T.);
#173=EDGE_CURVE('',#150,#150,#127,.T.);
#174=EDGE_CURVE('',#151,#151,#128,.T.);
#175=EDGE_CURVE('',#152,#152,#129,.T.);
#176=EDGE_CURVE('',#153,#153,#130,.T.);
#177=EDGE_CURVE('',#154,#154,#131,.T.);
#178=EDGE_CURVE('',#155,#155,#132,.T.);
#179=EDGE_CURVE('',#156,#156,#133,.T.);
#180=EDGE_CURVE('',#157,#157,#134,.T.);
#181=EDGE_CURVE('',#158,#158,#135,.T.);
#182=EDGE_CURVE('',#159,#159,#136,.T.);
#183=EDGE_CURVE('',#160,#160,#137,.T.);
#184=EDGE_CURVE('',#161,#161,#138,.T.);
#185=EDGE_CURVE('',#162,#162,#139,.T.);
#186=EDGE_CURVE('',#163,#163,#140,.T.);
#187=EDGE_CURVE('',#164,#164,#141,.T.);
#188=EDGE_CURVE('',#165,#165,#142,.T.);
#189=EDGE_CURVE('',#166,#166,#143,.T.);
#190=ORIENTED_EDGE('',*,*,#167,.T.);
#191=ORIENTED_EDGE('',*,*,#168,.T.);
#192=ORIENTED_EDGE('',*,*,#169,.T.);
#193=ORIENTED_EDGE('',*,*,#170,.T.);
#194=ORIENTED_EDGE('',*,*,#171,.F.);
#195=ORIENTED_EDGE('',*,*,#169,.F.);
#196=ORIENTED_EDGE('',*,*,#172,.F.);
#197=ORIENTED_EDGE('',*,*,#170,.F.);
#198=ORIENTED_EDGE('',*,*,#173,.F.);
#199=ORIENTED_EDGE('',*,*,#172,.T.);
#200=ORIENTED_EDGE('',*,*,#174,.F.);
#201=ORIENTED_EDGE('',*,*,#173,.T.);
#202=ORIENTED_EDGE('',*,*,#175,.F.);
#203=ORIENTED_EDGE('',*,*,#174,.T.);
#204=ORIENTED_EDGE('',*,*,#176,.F.);
#205=ORIENTED_EDGE('',*,*,#175,.T.);
#206=ORIENTED_EDGE('',*,*,#168,.F.);
#207=ORIENTED_EDGE('',*,*,#176,.T.);
#208=ORIENTED_EDGE('',*,*,#177,.F.);
#209=ORIENTED_EDGE('',*,*,#178,.F.);
#210=ORIENTED_EDGE('',*,*,#179,.F.);
#211=ORIENTED_EDGE('',*,*,#178,.T.);
#212=ORIENTED_EDGE('',*,*,#180,.F.);
#213=ORIENTED_EDGE('',*,*,#181,.F.);
#214=ORIENTED_EDGE('',*,*,#182,.F.);
#215=ORIENTED_EDGE('',*,*,#181,.T.);
#216=ORIENTED_EDGE('',*,*,#183,.F.);
#217=ORIENTED_EDGE('',*,*,#184,.F.);
#218=ORIENTED_EDGE('',*,*,#185,.F.);
#219=ORIENTED_EDGE('',*,*,#184,.T.);
#220=ORIENTED_EDGE('',*,*,#185,.T.);
#221=ORIENTED_EDGE('',*,*,#180,.T.);
#222=ORIENTED_EDGE('',*,*,#182,.T.);
#223=ORIENTED_EDGE('',*,*,#177,.T.);
#224=ORIENTED_EDGE('',*,*,#186,.T.);
#225=ORIENTED_EDGE('',*,*,#179,.T.);
#226=ORIENTED_EDGE('',*,*,#187,.F.);
#227=ORIENTED_EDGE('',*,*,#188,.F.);
#228=ORIENTED_EDGE('',*,*,#186,.F.);
#229=ORIENTED_EDGE('',*,*,#171,.T.);
#230=ORIENTED_EDGE('',*,*,#183,.T.);
#231=ORIENTED_EDGE('',*,*,#187,.T.);
#232=ORIENTED_EDGE('',*,*,#188,.T.);
#233=ORIENTED_EDGE('',*,*,#189,.F.);
#234=ORIENTED_EDGE('',*,*,#189,.T.);
#235=ORIENTED_EDGE('',*,*,#167,.F.);
#236=PLANE('',#293);
#237=PLANE('',#301);
#238=PLANE('',#305);
#239=PLANE('',#312);
#240=PLANE('',#317);
#241=PLANE('',#322);
#242=PLANE('',#334);
#243=PLANE('',#336);
#244=STYLED_ITEM('',(#524),#268);
#245=STYLED_ITEM('',(#524),#269);
#246=STYLED_ITEM('',(#524),#270);
#247=STYLED_ITEM('',(#524),#271);
#248=STYLED_ITEM('',(#524),#272);
#249=STYLED_ITEM('',(#524),#273);
#250=STYLED_ITEM('',(#524),#274);
#251=STYLED_ITEM('',(#524),#275);
#252=STYLED_ITEM('',(#524),#276);
#253=STYLED_ITEM('',(#524),#277);
#254=STYLED_ITEM('',(#524),#278);
#255=STYLED_ITEM('',(#524),#279);
#256=STYLED_ITEM('',(#524),#280);
#257=STYLED_ITEM('',(#524),#281);
#258=STYLED_ITEM('',(#524),#282);
#259=STYLED_ITEM('',(#524),#283);
#260=STYLED_ITEM('',(#524),#284);
#261=STYLED_ITEM('',(#524),#285);
#262=STYLED_ITEM('',(#524),#286);
#263=STYLED_ITEM('',(#524),#287);
#264=STYLED_ITEM('',(#524),#288);
#265=STYLED_ITEM('',(#524),#289);
#266=STYLED_ITEM('',(#524),#290);
#267=STYLED_ITEM('',(#524),#13);
#268=ADVANCED_FACE('',(#52,#29),#236,.T.);
#269=ADVANCED_FACE('',(#53,#30),#28,.F.);
#270=ADVANCED_FACE('',(#54,#31),#20,.T.);
#271=ADVANCED_FACE('',(#55,#32),#237,.T.);
#272=ADVANCED_FACE('',(#56,#33),#21,.T.);
#273=ADVANCED_FACE('',(#57,#34),#238,.T.);
#274=ADVANCED_FACE('',(#58,#35),#14,.T.);
#275=ADVANCED_FACE('',(#59,#36),#15,.T.);
#276=ADVANCED_FACE('',(#60,#37),#22,.F.);
#277=ADVANCED_FACE('',(#61,#38),#239,.F.);
#278=ADVANCED_FACE('',(#62,#39),#16,.T.);
#279=ADVANCED_FACE('',(#63,#40),#240,.F.);
#280=ADVANCED_FACE('',(#64,#41),#17,.T.);
#281=ADVANCED_FACE('',(#65,#42),#241,.F.);
#282=ADVANCED_FACE('',(#66,#43),#18,.T.);
#283=ADVANCED_FACE('',(#67,#44),#23,.T.);
#284=ADVANCED_FACE('',(#68,#45),#24,.T.);
#285=ADVANCED_FACE('',(#69,#46),#25,.T.);
#286=ADVANCED_FACE('',(#70,#47),#19,.T.);
#287=ADVANCED_FACE('',(#71,#48),#242,.T.);
#288=ADVANCED_FACE('',(#72,#49),#26,.T.);
#289=ADVANCED_FACE('',(#73,#50),#243,.T.);
#290=ADVANCED_FACE('',(#74,#51),#27,.F.);
#291=CLOSED_SHELL('',(#268,#269,#270,#271,#272,#273,#274,#275,#276,#277,
#278,#279,#280,#281,#282,#283,#284,#285,#286,#287,#288,#289,#290));
#292=AXIS2_PLACEMENT_3D('placement',#433,#339,#340);
#293=AXIS2_PLACEMENT_3D('',#434,#341,#342);
#294=AXIS2_PLACEMENT_3D('',#436,#343,#344);
#295=AXIS2_PLACEMENT_3D('',#438,#345,#346);
#296=AXIS2_PLACEMENT_3D('',#439,#347,#348);
#297=AXIS2_PLACEMENT_3D('',#441,#349,#350);
#298=AXIS2_PLACEMENT_3D('',#443,#351,#352);
#299=AXIS2_PLACEMENT_3D('',#444,#353,#354);
#300=AXIS2_PLACEMENT_3D('',#446,#355,#356);
#301=AXIS2_PLACEMENT_3D('',#447,#357,#358);
#302=AXIS2_PLACEMENT_3D('',#449,#359,#360);
#303=AXIS2_PLACEMENT_3D('',#450,#361,#362);
#304=AXIS2_PLACEMENT_3D('',#452,#363,#364);
#305=AXIS2_PLACEMENT_3D('',#453,#365,#366);
#306=AXIS2_PLACEMENT_3D('',#455,#367,#368);
#307=AXIS2_PLACEMENT_3D('',#456,#369,#370);
#308=AXIS2_PLACEMENT_3D('',#458,#371,#372);
#309=AXIS2_PLACEMENT_3D('',#459,#373,#374);
#310=AXIS2_PLACEMENT_3D('',#461,#375,#376);
#311=AXIS2_PLACEMENT_3D('',#462,#377,#378);
#312=AXIS2_PLACEMENT_3D('',#463,#379,#380);
#313=AXIS2_PLACEMENT_3D('',#465,#381,#382);
#314=AXIS2_PLACEMENT_3D('',#467,#383,#384);
#315=AXIS2_PLACEMENT_3D('',#468,#385,#386);
#316=AXIS2_PLACEMENT_3D('',#470,#387,#388);
#317=AXIS2_PLACEMENT_3D('',#471,#389,#390);
#318=AXIS2_PLACEMENT_3D('',#473,#391,#392);
#319=AXIS2_PLACEMENT_3D('',#475,#393,#394);
#320=AXIS2_PLACEMENT_3D('',#476,#395,#396);
#321=AXIS2_PLACEMENT_3D('',#478,#397,#398);
#322=AXIS2_PLACEMENT_3D('',#479,#399,#400);
#323=AXIS2_PLACEMENT_3D('',#481,#401,#402);
#324=AXIS2_PLACEMENT_3D('',#483,#403,#404);
#325=AXIS2_PLACEMENT_3D('',#484,#405,#406);
#326=AXIS2_PLACEMENT_3D('',#486,#407,#408);
#327=AXIS2_PLACEMENT_3D('',#487,#409,#410);
#328=AXIS2_PLACEMENT_3D('',#488,#411,#412);
#329=AXIS2_PLACEMENT_3D('',#489,#413,#414);
#330=AXIS2_PLACEMENT_3D('',#491,#415,#416);
#331=AXIS2_PLACEMENT_3D('',#492,#417,#418);
#332=AXIS2_PLACEMENT_3D('',#494,#419,#420);
#333=AXIS2_PLACEMENT_3D('',#496,#421,#422);
#334=AXIS2_PLACEMENT_3D('',#497,#423,#424);
#335=AXIS2_PLACEMENT_3D('',#498,#425,#426);
#336=AXIS2_PLACEMENT_3D('',#499,#427,#428);
#337=AXIS2_PLACEMENT_3D('',#501,#429,#430);
#338=AXIS2_PLACEMENT_3D('',#502,#431,#432);
#339=DIRECTION('axis',(0.,0.,1.));
#340=DIRECTION('refdir',(1.,0.,0.));
#341=DIRECTION('center_axis',(1.,0.,0.));
#342=DIRECTION('ref_axis',(0.,0.,-1.));
#343=DIRECTION('center_axis',(1.,0.,0.));
#344=DIRECTION('ref_axis',(0.,0.,-1.));
#345=DIRECTION('center_axis',(-1.,0.,0.));
#346=DIRECTION('ref_axis',(0.,0.,1.));
#347=DIRECTION('center_axis',(-1.,0.,0.));
#348=DIRECTION('ref_axis',(0.,0.,1.));
#349=DIRECTION('center_axis',(-1.,0.,0.));
#350=DIRECTION('ref_axis',(0.,-1.,-1.83690953073357E-16));
#351=DIRECTION('center_axis',(1.,0.,0.));
#352=DIRECTION('ref_axis',(0.,-1.,-1.83690953073357E-16));
#353=DIRECTION('center_axis',(-1.,0.,0.));
#354=DIRECTION('ref_axis',(0.,1.,0.));
#355=DIRECTION('center_axis',(1.,0.,0.));
#356=DIRECTION('ref_axis',(0.,1.,0.));
#357=DIRECTION('center_axis',(1.,0.,0.));
#358=DIRECTION('ref_axis',(0.,0.,-1.));
#359=DIRECTION('center_axis',(-1.,0.,0.));
#360=DIRECTION('ref_axis',(0.,0.,1.));
#361=DIRECTION('center_axis',(-1.,0.,0.));
#362=DIRECTION('ref_axis',(0.,1.,0.));
#363=DIRECTION('center_axis',(-1.,0.,0.));
#364=DIRECTION('ref_axis',(0.,0.,1.));
#365=DIRECTION('center_axis',(1.,0.,0.));
#366=DIRECTION('ref_axis',(0.,0.,-1.));
#367=DIRECTION('center_axis',(-1.,0.,0.));
#368=DIRECTION('ref_axis',(0.,0.,1.));
#369=DIRECTION('center_axis',(1.,0.,0.));
#370=DIRECTION('ref_axis',(0.,1.,0.));
#371=DIRECTION('center_axis',(-1.,0.,0.));
#372=DIRECTION('ref_axis',(0.,0.,1.));
#373=DIRECTION('center_axis',(1.,0.,0.));
#374=DIRECTION('ref_axis',(0.,1.,0.));
#375=DIRECTION('center_axis',(-1.,0.,0.));
#376=DIRECTION('ref_axis',(0.,0.,1.));
#377=DIRECTION('center_axis',(-1.,0.,0.));
#378=DIRECTION('ref_axis',(0.,1.,0.));
#379=DIRECTION('center_axis',(1.,0.,0.));
#380=DIRECTION('ref_axis',(0.,0.,-1.));
#381=DIRECTION('center_axis',(1.,0.,0.));
#382=DIRECTION('ref_axis',(0.,1.,0.));
#383=DIRECTION('center_axis',(-1.,0.,0.));
#384=DIRECTION('ref_axis',(0.,0.,1.));
#385=DIRECTION('center_axis',(-1.,0.,0.));
#386=DIRECTION('ref_axis',(0.,1.,0.));
#387=DIRECTION('center_axis',(-1.,0.,0.));
#388=DIRECTION('ref_axis',(0.,1.,0.));
#389=DIRECTION('center_axis',(1.,0.,0.));
#390=DIRECTION('ref_axis',(0.,0.,-1.));
#391=DIRECTION('center_axis',(1.,0.,0.));
#392=DIRECTION('ref_axis',(0.,1.,0.));
#393=DIRECTION('center_axis',(-1.,0.,0.));
#394=DIRECTION('ref_axis',(0.,0.,1.));
#395=DIRECTION('center_axis',(-1.,0.,0.));
#396=DIRECTION('ref_axis',(0.,1.,0.));
#397=DIRECTION('center_axis',(-1.,0.,0.));
#398=DIRECTION('ref_axis',(0.,1.,0.));
#399=DIRECTION('center_axis',(1.,0.,0.));
#400=DIRECTION('ref_axis',(0.,0.,-1.));
#401=DIRECTION('center_axis',(1.,0.,0.));
#402=DIRECTION('ref_axis',(0.,1.,0.));
#403=DIRECTION('center_axis',(-1.,0.,0.));
#404=DIRECTION('ref_axis',(0.,0.,1.));
#405=DIRECTION('center_axis',(-1.,0.,0.));
#406=DIRECTION('ref_axis',(0.,1.,0.));
#407=DIRECTION('center_axis',(-1.,0.,0.));
#408=DIRECTION('ref_axis',(0.,1.,0.));
#409=DIRECTION('center_axis',(1.,0.,0.));
#410=DIRECTION('ref_axis',(0.,1.,0.));
#411=DIRECTION('center_axis',(1.,0.,0.));
#412=DIRECTION('ref_axis',(0.,1.,0.));
#413=DIRECTION('center_axis',(1.,0.,0.));
#414=DIRECTION('ref_axis',(0.,1.,0.));
#415=DIRECTION('center_axis',(1.,0.,0.));
#416=DIRECTION('ref_axis',(0.,0.,-1.));
#417=DIRECTION('center_axis',(-1.,0.,0.));
#418=DIRECTION('ref_axis',(0.,1.,0.));
#419=DIRECTION('center_axis',(-1.,0.,0.));
#420=DIRECTION('ref_axis',(0.,1.,0.));
#421=DIRECTION('center_axis',(1.,0.,0.));
#422=DIRECTION('ref_axis',(0.,1.,0.));
#423=DIRECTION('center_axis',(-1.,0.,0.));
#424=DIRECTION('ref_axis',(0.,0.,1.));
#425=DIRECTION('center_axis',(1.,0.,0.));
#426=DIRECTION('ref_axis',(0.,1.,0.));
#427=DIRECTION('center_axis',(1.,0.,0.));
#428=DIRECTION('ref_axis',(0.,0.,-1.));
#429=DIRECTION('center_axis',(1.,0.,0.));
#430=DIRECTION('ref_axis',(0.,0.,-1.));
#431=DIRECTION('center_axis',(1.,0.,0.));
#432=DIRECTION('ref_axis',(0.,1.,0.));
#433=CARTESIAN_POINT('',(0.,0.,0.));
#434=CARTESIAN_POINT('Origin',(-51.,11.5,0.));
#435=CARTESIAN_POINT('',(-51.,10.25,0.));
#436=CARTESIAN_POINT('Origin',(-51.,0.,0.));
#437=CARTESIAN_POINT('',(-51.,10.,0.));
#438=CARTESIAN_POINT('Origin',(-51.,0.,0.));
#439=CARTESIAN_POINT('Origin',(-57.,0.,0.));
#440=CARTESIAN_POINT('',(-57.,11.5,7.04148653447869E-16));
#441=CARTESIAN_POINT('Origin',(-57.,0.,0.));
#442=CARTESIAN_POINT('',(-58.,12.5,3.82689485569494E-15));
#443=CARTESIAN_POINT('Origin',(-58.,0.,0.));
#444=CARTESIAN_POINT('Origin',(-54.5,0.,0.));
#445=CARTESIAN_POINT('',(-51.,11.5,0.));
#446=CARTESIAN_POINT('Origin',(-51.,0.,0.));
#447=CARTESIAN_POINT('Origin',(-58.,15.,0.));
#448=CARTESIAN_POINT('',(-58.,15.,0.));
#449=CARTESIAN_POINT('Origin',(-58.,0.,0.));
#450=CARTESIAN_POINT('Origin',(-59.5,0.,0.));
#451=CARTESIAN_POINT('',(-61.,15.,0.));
#452=CARTESIAN_POINT('Origin',(-61.,0.,0.));
#453=CARTESIAN_POINT('Origin',(-61.,18.25,0.));
#454=CARTESIAN_POINT('',(-61.,18.25,0.));
#455=CARTESIAN_POINT('Origin',(-61.,0.,0.));
#456=CARTESIAN_POINT('Origin',(-64.7264670286507,0.,0.));
#457=CARTESIAN_POINT('',(-68.4529340573015,16.2529923381037,0.));
#458=CARTESIAN_POINT('Origin',(-68.4529340573015,0.,0.));
#459=CARTESIAN_POINT('Origin',(-68.7264670286507,0.,0.));
#460=CARTESIAN_POINT('',(-69.,10.,0.));
#461=CARTESIAN_POINT('Origin',(-69.,0.,0.));
#462=CARTESIAN_POINT('Origin',(-60.,0.,0.));
#463=CARTESIAN_POINT('Origin',(-22.5,14.65,0.));
#464=CARTESIAN_POINT('',(-22.5,-12.5,-1.53080849893419E-15));
#465=CARTESIAN_POINT('Origin',(-22.5,0.,0.));
#466=CARTESIAN_POINT('',(-22.5,11.65,0.));
#467=CARTESIAN_POINT('Origin',(-22.5,0.,0.));
#468=CARTESIAN_POINT('Origin',(-26.25,0.,0.));
#469=CARTESIAN_POINT('',(-29.9603542533394,-12.5,1.53080849893419E-15));
#470=CARTESIAN_POINT('Origin',(-29.9603542533394,0.,0.));
#471=CARTESIAN_POINT('Origin',(-15.,14.65,0.));
#472=CARTESIAN_POINT('',(-15.,-12.5,-1.53080849893419E-15));
#473=CARTESIAN_POINT('Origin',(-15.,0.,0.));
#474=CARTESIAN_POINT('',(-15.,11.65,0.));
#475=CARTESIAN_POINT('Origin',(-15.,0.,0.));
#476=CARTESIAN_POINT('Origin',(-18.75,0.,0.));
#477=CARTESIAN_POINT('',(-22.4603542533394,-12.5,1.53080849893419E-15));
#478=CARTESIAN_POINT('Origin',(-22.4603542533394,0.,0.));
#479=CARTESIAN_POINT('Origin',(-7.5,14.65,0.));
#480=CARTESIAN_POINT('',(-7.5,-12.5,-1.53080849893419E-15));
#481=CARTESIAN_POINT('Origin',(-7.5,0.,0.));
#482=CARTESIAN_POINT('',(-7.5,11.65,0.));
#483=CARTESIAN_POINT('Origin',(-7.5,0.,0.));
#484=CARTESIAN_POINT('Origin',(-11.25,0.,0.));
#485=CARTESIAN_POINT('',(-14.9603542533394,-12.5,1.53080849893419E-15));
#486=CARTESIAN_POINT('Origin',(-14.9603542533394,0.,0.));
#487=CARTESIAN_POINT('Origin',(-25.5,0.,0.));
#488=CARTESIAN_POINT('Origin',(-25.5,0.,0.));
#489=CARTESIAN_POINT('Origin',(-25.5,0.,0.));
#490=CARTESIAN_POINT('',(-51.,12.5,0.));
#491=CARTESIAN_POINT('Origin',(-51.,0.,0.));
#492=CARTESIAN_POINT('Origin',(-3.75,0.,0.));
#493=CARTESIAN_POINT('',(-7.46035425333936,-12.5,1.53080849893419E-15));
#494=CARTESIAN_POINT('Origin',(-7.46035425333936,0.,0.));
#495=CARTESIAN_POINT('',(0.,11.65,0.));
#496=CARTESIAN_POINT('Origin',(-1.66533453693773E-15,0.,0.));
#497=CARTESIAN_POINT('Origin',(-51.,12.5,0.));
#498=CARTESIAN_POINT('Origin',(-25.5,0.,0.));
#499=CARTESIAN_POINT('Origin',(-1.88289445368906E-15,10.25,0.));
#500=CARTESIAN_POINT('',(-1.88289445368906E-15,10.25,0.));
#501=CARTESIAN_POINT('Origin',(0.,0.,0.));
#502=CARTESIAN_POINT('Origin',(-25.5,0.,0.));
#503=UNCERTAINTY_MEASURE_WITH_UNIT(LENGTH_MEASURE(0.01),#507,
'DISTANCE_ACCURACY_VALUE',
'Maximum model space distance between geometric entities at asserted c
onnectivities');
#504=UNCERTAINTY_MEASURE_WITH_UNIT(LENGTH_MEASURE(1.E-6),#507,
'DISTANCE_ACCURACY_VALUE',
'Maximum model space distance between geometric entities at asserted c
onnectivities');
#505=(
GEOMETRIC_REPRESENTATION_CONTEXT(3)
GLOBAL_UNCERTAINTY_ASSIGNED_CONTEXT((#503))
GLOBAL_UNIT_ASSIGNED_CONTEXT((#507,#510,#508))
REPRESENTATION_CONTEXT('','3D')
);
#506=(
GEOMETRIC_REPRESENTATION_CONTEXT(3)
GLOBAL_UNCERTAINTY_ASSIGNED_CONTEXT((#504))
GLOBAL_UNIT_ASSIGNED_CONTEXT((#507,#510,#508))
REPRESENTATION_CONTEXT('','3D')
);
#507=(
LENGTH_UNIT()
NAMED_UNIT(*)
SI_UNIT(.MILLI.,.METRE.)
);
#508=(
NAMED_UNIT(*)
SI_UNIT($,.STERADIAN.)
SOLID_ANGLE_UNIT()
);
#509=DIMENSIONAL_EXPONENTS(0.,0.,0.,0.,0.,0.,0.);
#510=(
CONVERSION_BASED_UNIT('degree',#512)
NAMED_UNIT(#509)
PLANE_ANGLE_UNIT()
);
#511=(
NAMED_UNIT(*)
PLANE_ANGLE_UNIT()
SI_UNIT($,.RADIAN.)
);
#512=PLANE_ANGLE_MEASURE_WITH_UNIT(PLANE_ANGLE_MEASURE(0.01745329252),#511);
#513=SHAPE_DEFINITION_REPRESENTATION(#514,#515);
#514=PRODUCT_DEFINITION_SHAPE('',$,#517);
#515=SHAPE_REPRESENTATION('',(#292),#505);
#516=DESIGN_CONTEXT('part definition',#521,'design');
#517=PRODUCT_DEFINITION('26040020000','26040020000',#518,#516);
#518=PRODUCT_DEFINITION_FORMATION('',$,#523);
#519=PRODUCT_RELATED_PRODUCT_CATEGORY('26040020000','26040020000',(#523));
#520=APPLICATION_PROTOCOL_DEFINITION('international standard',
'ap203_configuration_controlled_3d_design_of_mechanical_parts_and_asse
mblies_mim_lf',2004,#521);
#521=APPLICATION_CONTEXT(
'Configuration Controlled 3D Design of Mechanical Parts and Assemblies');
#522=MECHANICAL_CONTEXT('part definition',#521,'mechanical');
#523=PRODUCT('26040020000','26040020000',$,(#522));
#524=PRESENTATION_STYLE_ASSIGNMENT((#525));
#525=SURFACE_STYLE_USAGE(.BOTH.,#526);
#526=SURFACE_SIDE_STYLE($,(#527));
#527=SURFACE_STYLE_FILL_AREA(#528);
#528=FILL_AREA_STYLE($,(#529));
#529=FILL_AREA_STYLE_COLOUR($,#530);
#530=COLOUR_RGB('',0.745098039215686,0.737254901960784,0.729411764705882);
ENDSEC;
END-ISO-10303-21;
