ISO-10303-21;
HEADER;
/* Generated by software containing ST-Developer
 * from STEP Tools, Inc. (www.steptools.com) 
 */

FILE_DESCRIPTION(
/* description */ (''),
/* implementation_level */ '2;1');

FILE_NAME(
/* name */ 
'C:\\Vault_Workspace\\DATA\\Katalog Bupospol\\2 Potrubn\X\ED d\X\EDly\\
2.6 Hadicov\X\E9 n\X\E1stavce\\26040\\26040\\26040025000.stp',
/* time_stamp */ '2016-03-08T11:46:07+01:00',
/* author */ ('Struska'),
/* organization */ ('BUPOSPOL'),
/* preprocessor_version */ 'ST-DEVELOPER v15.6',
/* originating_system */ 'Autodesk Inventor 2015',
/* authorisation */ '');

FILE_SCHEMA (('CONFIG_CONTROL_DESIGN'));
ENDSEC;

DATA;
#10=MECHANICAL_DESIGN_GEOMETRIC_PRESENTATION_REPRESENTATION('',(#224,#238,
#226,#245,#234,#241,#225,#233,#237,#243,#232,#231,#242,#236,#230,#244,#229,
#228,#235,#227,#240,#239),#464);
#11=SHAPE_REPRESENTATION_RELATIONSHIP('SRR','None',#473,#12);
#12=ADVANCED_BREP_SHAPE_REPRESENTATION($,(#13),#463);
#13=MANIFOLD_SOLID_BREP('T\X2\011B\X0\leso1',#267);
#14=CONICAL_SURFACE('',#282,20.7361167591387,15.);
#15=CONICAL_SURFACE('',#284,16.2361167591387,85.);
#16=CONICAL_SURFACE('',#294,13.0441408822463,5.99999999999994);
#17=CONICAL_SURFACE('',#298,13.0441408822463,5.99999999999994);
#18=CONICAL_SURFACE('',#302,13.0441408822463,5.99999999999994);
#19=CONICAL_SURFACE('',#303,13.0441408822463,5.99999999999994);
#20=CYLINDRICAL_SURFACE('',#275,14.5);
#21=CYLINDRICAL_SURFACE('',#278,17.5);
#22=CYLINDRICAL_SURFACE('',#286,13.);
#23=CYLINDRICAL_SURFACE('',#307,13.45);
#24=CYLINDRICAL_SURFACE('',#310,11.6);
#25=TOROIDAL_SURFACE('',#272,16.1,1.6);
#26=FACE_BOUND('',#69,.T.);
#27=FACE_BOUND('',#71,.T.);
#28=FACE_BOUND('',#73,.T.);
#29=FACE_BOUND('',#75,.T.);
#30=FACE_BOUND('',#77,.T.);
#31=FACE_BOUND('',#79,.T.);
#32=FACE_BOUND('',#81,.T.);
#33=FACE_BOUND('',#83,.T.);
#34=FACE_BOUND('',#85,.T.);
#35=FACE_BOUND('',#87,.T.);
#36=FACE_BOUND('',#89,.T.);
#37=FACE_BOUND('',#91,.T.);
#38=FACE_BOUND('',#93,.T.);
#39=FACE_BOUND('',#95,.T.);
#40=FACE_BOUND('',#97,.T.);
#41=FACE_BOUND('',#99,.T.);
#42=FACE_BOUND('',#101,.T.);
#43=FACE_BOUND('',#103,.T.);
#44=FACE_BOUND('',#105,.T.);
#45=FACE_BOUND('',#107,.T.);
#46=FACE_BOUND('',#109,.T.);
#47=FACE_OUTER_BOUND('',#68,.T.);
#48=FACE_OUTER_BOUND('',#70,.T.);
#49=FACE_OUTER_BOUND('',#72,.T.);
#50=FACE_OUTER_BOUND('',#74,.T.);
#51=FACE_OUTER_BOUND('',#76,.T.);
#52=FACE_OUTER_BOUND('',#78,.T.);
#53=FACE_OUTER_BOUND('',#80,.T.);
#54=FACE_OUTER_BOUND('',#82,.T.);
#55=FACE_OUTER_BOUND('',#84,.T.);
#56=FACE_OUTER_BOUND('',#86,.T.);
#57=FACE_OUTER_BOUND('',#88,.T.);
#58=FACE_OUTER_BOUND('',#90,.T.);
#59=FACE_OUTER_BOUND('',#92,.T.);
#60=FACE_OUTER_BOUND('',#94,.T.);
#61=FACE_OUTER_BOUND('',#96,.T.);
#62=FACE_OUTER_BOUND('',#98,.T.);
#63=FACE_OUTER_BOUND('',#100,.T.);
#64=FACE_OUTER_BOUND('',#102,.T.);
#65=FACE_OUTER_BOUND('',#104,.T.);
#66=FACE_OUTER_BOUND('',#106,.T.);
#67=FACE_OUTER_BOUND('',#108,.T.);
#68=EDGE_LOOP('',(#173));
#69=EDGE_LOOP('',(#174));
#70=EDGE_LOOP('',(#175));
#71=EDGE_LOOP('',(#176));
#72=EDGE_LOOP('',(#177));
#73=EDGE_LOOP('',(#178));
#74=EDGE_LOOP('',(#179));
#75=EDGE_LOOP('',(#180));
#76=EDGE_LOOP('',(#181));
#77=EDGE_LOOP('',(#182));
#78=EDGE_LOOP('',(#183));
#79=EDGE_LOOP('',(#184));
#80=EDGE_LOOP('',(#185));
#81=EDGE_LOOP('',(#186));
#82=EDGE_LOOP('',(#187));
#83=EDGE_LOOP('',(#188));
#84=EDGE_LOOP('',(#189));
#85=EDGE_LOOP('',(#190));
#86=EDGE_LOOP('',(#191));
#87=EDGE_LOOP('',(#192));
#88=EDGE_LOOP('',(#193));
#89=EDGE_LOOP('',(#194));
#90=EDGE_LOOP('',(#195));
#91=EDGE_LOOP('',(#196));
#92=EDGE_LOOP('',(#197));
#93=EDGE_LOOP('',(#198));
#94=EDGE_LOOP('',(#199));
#95=EDGE_LOOP('',(#200));
#96=EDGE_LOOP('',(#201));
#97=EDGE_LOOP('',(#202));
#98=EDGE_LOOP('',(#203));
#99=EDGE_LOOP('',(#204));
#100=EDGE_LOOP('',(#205));
#101=EDGE_LOOP('',(#206));
#102=EDGE_LOOP('',(#207));
#103=EDGE_LOOP('',(#208));
#104=EDGE_LOOP('',(#209));
#105=EDGE_LOOP('',(#210));
#106=EDGE_LOOP('',(#211));
#107=EDGE_LOOP('',(#212));
#108=EDGE_LOOP('',(#213));
#109=EDGE_LOOP('',(#214));
#110=CIRCLE('',#270,14.5);
#111=CIRCLE('',#271,13.45);
#112=CIRCLE('',#273,14.5);
#113=CIRCLE('',#274,16.1);
#114=CIRCLE('',#277,17.5);
#115=CIRCLE('',#279,17.5);
#116=CIRCLE('',#281,22.);
#117=CIRCLE('',#283,19.4722335182774);
#118=CIRCLE('',#285,13.);
#119=CIRCLE('',#287,13.);
#120=CIRCLE('',#289,13.4382817644926);
#121=CIRCLE('',#290,12.65);
#122=CIRCLE('',#292,13.45);
#123=CIRCLE('',#293,13.4382817644926);
#124=CIRCLE('',#296,13.4382817644926);
#125=CIRCLE('',#297,12.65);
#126=CIRCLE('',#300,13.4382817644926);
#127=CIRCLE('',#301,12.65);
#128=CIRCLE('',#304,12.65);
#129=CIRCLE('',#306,11.6);
#130=CIRCLE('',#309,11.6);
#131=VERTEX_POINT('',#399);
#132=VERTEX_POINT('',#401);
#133=VERTEX_POINT('',#404);
#134=VERTEX_POINT('',#406);
#135=VERTEX_POINT('',#410);
#136=VERTEX_POINT('',#413);
#137=VERTEX_POINT('',#416);
#138=VERTEX_POINT('',#419);
#139=VERTEX_POINT('',#422);
#140=VERTEX_POINT('',#425);
#141=VERTEX_POINT('',#428);
#142=VERTEX_POINT('',#430);
#143=VERTEX_POINT('',#433);
#144=VERTEX_POINT('',#435);
#145=VERTEX_POINT('',#439);
#146=VERTEX_POINT('',#441);
#147=VERTEX_POINT('',#445);
#148=VERTEX_POINT('',#447);
#149=VERTEX_POINT('',#451);
#150=VERTEX_POINT('',#454);
#151=VERTEX_POINT('',#458);
#152=EDGE_CURVE('',#131,#131,#110,.T.);
#153=EDGE_CURVE('',#132,#132,#111,.T.);
#154=EDGE_CURVE('',#133,#133,#112,.T.);
#155=EDGE_CURVE('',#134,#134,#113,.T.);
#156=EDGE_CURVE('',#135,#135,#114,.T.);
#157=EDGE_CURVE('',#136,#136,#115,.T.);
#158=EDGE_CURVE('',#137,#137,#116,.T.);
#159=EDGE_CURVE('',#138,#138,#117,.T.);
#160=EDGE_CURVE('',#139,#139,#118,.T.);
#161=EDGE_CURVE('',#140,#140,#119,.T.);
#162=EDGE_CURVE('',#141,#141,#120,.T.);
#163=EDGE_CURVE('',#142,#142,#121,.T.);
#164=EDGE_CURVE('',#143,#143,#122,.T.);
#165=EDGE_CURVE('',#144,#144,#123,.T.);
#166=EDGE_CURVE('',#145,#145,#124,.T.);
#167=EDGE_CURVE('',#146,#146,#125,.T.);
#168=EDGE_CURVE('',#147,#147,#126,.T.);
#169=EDGE_CURVE('',#148,#148,#127,.T.);
#170=EDGE_CURVE('',#149,#149,#128,.T.);
#171=EDGE_CURVE('',#150,#150,#129,.T.);
#172=EDGE_CURVE('',#151,#151,#130,.T.);
#173=ORIENTED_EDGE('',*,*,#152,.F.);
#174=ORIENTED_EDGE('',*,*,#153,.F.);
#175=ORIENTED_EDGE('',*,*,#154,.T.);
#176=ORIENTED_EDGE('',*,*,#155,.T.);
#177=ORIENTED_EDGE('',*,*,#152,.T.);
#178=ORIENTED_EDGE('',*,*,#154,.F.);
#179=ORIENTED_EDGE('',*,*,#156,.F.);
#180=ORIENTED_EDGE('',*,*,#155,.F.);
#181=ORIENTED_EDGE('',*,*,#157,.F.);
#182=ORIENTED_EDGE('',*,*,#156,.T.);
#183=ORIENTED_EDGE('',*,*,#158,.F.);
#184=ORIENTED_EDGE('',*,*,#157,.T.);
#185=ORIENTED_EDGE('',*,*,#159,.F.);
#186=ORIENTED_EDGE('',*,*,#158,.T.);
#187=ORIENTED_EDGE('',*,*,#160,.F.);
#188=ORIENTED_EDGE('',*,*,#159,.T.);
#189=ORIENTED_EDGE('',*,*,#161,.F.);
#190=ORIENTED_EDGE('',*,*,#160,.T.);
#191=ORIENTED_EDGE('',*,*,#162,.T.);
#192=ORIENTED_EDGE('',*,*,#163,.F.);
#193=ORIENTED_EDGE('',*,*,#164,.F.);
#194=ORIENTED_EDGE('',*,*,#165,.T.);
#195=ORIENTED_EDGE('',*,*,#163,.T.);
#196=ORIENTED_EDGE('',*,*,#165,.F.);
#197=ORIENTED_EDGE('',*,*,#166,.T.);
#198=ORIENTED_EDGE('',*,*,#167,.F.);
#199=ORIENTED_EDGE('',*,*,#167,.T.);
#200=ORIENTED_EDGE('',*,*,#162,.F.);
#201=ORIENTED_EDGE('',*,*,#168,.T.);
#202=ORIENTED_EDGE('',*,*,#169,.F.);
#203=ORIENTED_EDGE('',*,*,#169,.T.);
#204=ORIENTED_EDGE('',*,*,#166,.F.);
#205=ORIENTED_EDGE('',*,*,#170,.F.);
#206=ORIENTED_EDGE('',*,*,#168,.F.);
#207=ORIENTED_EDGE('',*,*,#161,.T.);
#208=ORIENTED_EDGE('',*,*,#171,.T.);
#209=ORIENTED_EDGE('',*,*,#164,.T.);
#210=ORIENTED_EDGE('',*,*,#153,.T.);
#211=ORIENTED_EDGE('',*,*,#170,.T.);
#212=ORIENTED_EDGE('',*,*,#172,.F.);
#213=ORIENTED_EDGE('',*,*,#172,.T.);
#214=ORIENTED_EDGE('',*,*,#171,.F.);
#215=PLANE('',#269);
#216=PLANE('',#276);
#217=PLANE('',#280);
#218=PLANE('',#288);
#219=PLANE('',#291);
#220=PLANE('',#295);
#221=PLANE('',#299);
#222=PLANE('',#305);
#223=PLANE('',#308);
#224=STYLED_ITEM('',(#482),#246);
#225=STYLED_ITEM('',(#482),#247);
#226=STYLED_ITEM('',(#482),#248);
#227=STYLED_ITEM('',(#482),#249);
#228=STYLED_ITEM('',(#482),#250);
#229=STYLED_ITEM('',(#482),#251);
#230=STYLED_ITEM('',(#482),#252);
#231=STYLED_ITEM('',(#482),#253);
#232=STYLED_ITEM('',(#482),#254);
#233=STYLED_ITEM('',(#482),#255);
#234=STYLED_ITEM('',(#482),#256);
#235=STYLED_ITEM('',(#482),#257);
#236=STYLED_ITEM('',(#482),#258);
#237=STYLED_ITEM('',(#482),#259);
#238=STYLED_ITEM('',(#482),#260);
#239=STYLED_ITEM('',(#482),#261);
#240=STYLED_ITEM('',(#482),#262);
#241=STYLED_ITEM('',(#482),#263);
#242=STYLED_ITEM('',(#482),#264);
#243=STYLED_ITEM('',(#482),#265);
#244=STYLED_ITEM('',(#482),#266);
#245=STYLED_ITEM('',(#482),#13);
#246=ADVANCED_FACE('',(#47,#26),#215,.T.);
#247=ADVANCED_FACE('',(#48,#27),#25,.F.);
#248=ADVANCED_FACE('',(#49,#28),#20,.T.);
#249=ADVANCED_FACE('',(#50,#29),#216,.T.);
#250=ADVANCED_FACE('',(#51,#30),#21,.T.);
#251=ADVANCED_FACE('',(#52,#31),#217,.T.);
#252=ADVANCED_FACE('',(#53,#32),#14,.T.);
#253=ADVANCED_FACE('',(#54,#33),#15,.T.);
#254=ADVANCED_FACE('',(#55,#34),#22,.F.);
#255=ADVANCED_FACE('',(#56,#35),#218,.F.);
#256=ADVANCED_FACE('',(#57,#36),#219,.F.);
#257=ADVANCED_FACE('',(#58,#37),#16,.T.);
#258=ADVANCED_FACE('',(#59,#38),#220,.F.);
#259=ADVANCED_FACE('',(#60,#39),#17,.T.);
#260=ADVANCED_FACE('',(#61,#40),#221,.F.);
#261=ADVANCED_FACE('',(#62,#41),#18,.T.);
#262=ADVANCED_FACE('',(#63,#42),#19,.T.);
#263=ADVANCED_FACE('',(#64,#43),#222,.T.);
#264=ADVANCED_FACE('',(#65,#44),#23,.T.);
#265=ADVANCED_FACE('',(#66,#45),#223,.T.);
#266=ADVANCED_FACE('',(#67,#46),#24,.F.);
#267=CLOSED_SHELL('',(#246,#247,#248,#249,#250,#251,#252,#253,#254,#255,
#256,#257,#258,#259,#260,#261,#262,#263,#264,#265,#266));
#268=AXIS2_PLACEMENT_3D('placement',#397,#311,#312);
#269=AXIS2_PLACEMENT_3D('',#398,#313,#314);
#270=AXIS2_PLACEMENT_3D('',#400,#315,#316);
#271=AXIS2_PLACEMENT_3D('',#402,#317,#318);
#272=AXIS2_PLACEMENT_3D('',#403,#319,#320);
#273=AXIS2_PLACEMENT_3D('',#405,#321,#322);
#274=AXIS2_PLACEMENT_3D('',#407,#323,#324);
#275=AXIS2_PLACEMENT_3D('',#408,#325,#326);
#276=AXIS2_PLACEMENT_3D('',#409,#327,#328);
#277=AXIS2_PLACEMENT_3D('',#411,#329,#330);
#278=AXIS2_PLACEMENT_3D('',#412,#331,#332);
#279=AXIS2_PLACEMENT_3D('',#414,#333,#334);
#280=AXIS2_PLACEMENT_3D('',#415,#335,#336);
#281=AXIS2_PLACEMENT_3D('',#417,#337,#338);
#282=AXIS2_PLACEMENT_3D('',#418,#339,#340);
#283=AXIS2_PLACEMENT_3D('',#420,#341,#342);
#284=AXIS2_PLACEMENT_3D('',#421,#343,#344);
#285=AXIS2_PLACEMENT_3D('',#423,#345,#346);
#286=AXIS2_PLACEMENT_3D('',#424,#347,#348);
#287=AXIS2_PLACEMENT_3D('',#426,#349,#350);
#288=AXIS2_PLACEMENT_3D('',#427,#351,#352);
#289=AXIS2_PLACEMENT_3D('',#429,#353,#354);
#290=AXIS2_PLACEMENT_3D('',#431,#355,#356);
#291=AXIS2_PLACEMENT_3D('',#432,#357,#358);
#292=AXIS2_PLACEMENT_3D('',#434,#359,#360);
#293=AXIS2_PLACEMENT_3D('',#436,#361,#362);
#294=AXIS2_PLACEMENT_3D('',#437,#363,#364);
#295=AXIS2_PLACEMENT_3D('',#438,#365,#366);
#296=AXIS2_PLACEMENT_3D('',#440,#367,#368);
#297=AXIS2_PLACEMENT_3D('',#442,#369,#370);
#298=AXIS2_PLACEMENT_3D('',#443,#371,#372);
#299=AXIS2_PLACEMENT_3D('',#444,#373,#374);
#300=AXIS2_PLACEMENT_3D('',#446,#375,#376);
#301=AXIS2_PLACEMENT_3D('',#448,#377,#378);
#302=AXIS2_PLACEMENT_3D('',#449,#379,#380);
#303=AXIS2_PLACEMENT_3D('',#450,#381,#382);
#304=AXIS2_PLACEMENT_3D('',#452,#383,#384);
#305=AXIS2_PLACEMENT_3D('',#453,#385,#386);
#306=AXIS2_PLACEMENT_3D('',#455,#387,#388);
#307=AXIS2_PLACEMENT_3D('',#456,#389,#390);
#308=AXIS2_PLACEMENT_3D('',#457,#391,#392);
#309=AXIS2_PLACEMENT_3D('',#459,#393,#394);
#310=AXIS2_PLACEMENT_3D('',#460,#395,#396);
#311=DIRECTION('axis',(0.,0.,1.));
#312=DIRECTION('refdir',(1.,0.,0.));
#313=DIRECTION('center_axis',(1.,0.,0.));
#314=DIRECTION('ref_axis',(0.,0.,-1.));
#315=DIRECTION('center_axis',(-1.,0.,0.));
#316=DIRECTION('ref_axis',(0.,0.,1.));
#317=DIRECTION('center_axis',(1.,0.,0.));
#318=DIRECTION('ref_axis',(0.,0.,-1.));
#319=DIRECTION('center_axis',(-1.,0.,0.));
#320=DIRECTION('ref_axis',(0.,0.,1.));
#321=DIRECTION('center_axis',(-1.,0.,0.));
#322=DIRECTION('ref_axis',(0.,-1.,-1.83690953073357E-16));
#323=DIRECTION('center_axis',(1.,0.,0.));
#324=DIRECTION('ref_axis',(0.,-1.,-1.83690953073357E-16));
#325=DIRECTION('center_axis',(-1.,0.,0.));
#326=DIRECTION('ref_axis',(0.,1.,0.));
#327=DIRECTION('center_axis',(1.,0.,0.));
#328=DIRECTION('ref_axis',(0.,0.,-1.));
#329=DIRECTION('center_axis',(-1.,0.,0.));
#330=DIRECTION('ref_axis',(0.,0.,1.));
#331=DIRECTION('center_axis',(-1.,0.,0.));
#332=DIRECTION('ref_axis',(0.,1.,0.));
#333=DIRECTION('center_axis',(-1.,0.,0.));
#334=DIRECTION('ref_axis',(0.,0.,1.));
#335=DIRECTION('center_axis',(1.,0.,0.));
#336=DIRECTION('ref_axis',(0.,0.,-1.));
#337=DIRECTION('center_axis',(-1.,0.,0.));
#338=DIRECTION('ref_axis',(0.,0.,1.));
#339=DIRECTION('center_axis',(1.,0.,0.));
#340=DIRECTION('ref_axis',(0.,1.,0.));
#341=DIRECTION('center_axis',(-1.,0.,0.));
#342=DIRECTION('ref_axis',(0.,0.,1.));
#343=DIRECTION('center_axis',(1.,0.,0.));
#344=DIRECTION('ref_axis',(0.,1.,0.));
#345=DIRECTION('center_axis',(-1.,0.,0.));
#346=DIRECTION('ref_axis',(0.,0.,1.));
#347=DIRECTION('center_axis',(-1.,0.,0.));
#348=DIRECTION('ref_axis',(0.,1.,0.));
#349=DIRECTION('center_axis',(-1.,0.,0.));
#350=DIRECTION('ref_axis',(0.,1.,0.));
#351=DIRECTION('center_axis',(1.,0.,0.));
#352=DIRECTION('ref_axis',(0.,0.,-1.));
#353=DIRECTION('center_axis',(-1.,0.,0.));
#354=DIRECTION('ref_axis',(0.,0.,1.));
#355=DIRECTION('center_axis',(-1.,0.,0.));
#356=DIRECTION('ref_axis',(0.,0.,1.));
#357=DIRECTION('center_axis',(-1.,0.,0.));
#358=DIRECTION('ref_axis',(0.,0.,1.));
#359=DIRECTION('center_axis',(-1.,0.,0.));
#360=DIRECTION('ref_axis',(0.,1.,0.));
#361=DIRECTION('center_axis',(-1.,0.,0.));
#362=DIRECTION('ref_axis',(0.,0.,1.));
#363=DIRECTION('center_axis',(-1.,0.,0.));
#364=DIRECTION('ref_axis',(0.,1.,0.));
#365=DIRECTION('center_axis',(1.,0.,0.));
#366=DIRECTION('ref_axis',(0.,0.,-1.));
#367=DIRECTION('center_axis',(-1.,0.,0.));
#368=DIRECTION('ref_axis',(0.,0.,1.));
#369=DIRECTION('center_axis',(-1.,0.,0.));
#370=DIRECTION('ref_axis',(0.,0.,1.));
#371=DIRECTION('center_axis',(-1.,0.,0.));
#372=DIRECTION('ref_axis',(0.,1.,0.));
#373=DIRECTION('center_axis',(1.,0.,0.));
#374=DIRECTION('ref_axis',(0.,0.,-1.));
#375=DIRECTION('center_axis',(-1.,0.,0.));
#376=DIRECTION('ref_axis',(0.,0.,1.));
#377=DIRECTION('center_axis',(-1.,0.,0.));
#378=DIRECTION('ref_axis',(0.,0.,1.));
#379=DIRECTION('center_axis',(-1.,0.,0.));
#380=DIRECTION('ref_axis',(0.,1.,0.));
#381=DIRECTION('center_axis',(-1.,0.,0.));
#382=DIRECTION('ref_axis',(0.,1.,0.));
#383=DIRECTION('center_axis',(1.,0.,0.));
#384=DIRECTION('ref_axis',(0.,1.,0.));
#385=DIRECTION('center_axis',(-1.,0.,0.));
#386=DIRECTION('ref_axis',(0.,0.,1.));
#387=DIRECTION('center_axis',(1.,0.,0.));
#388=DIRECTION('ref_axis',(0.,0.,-1.));
#389=DIRECTION('center_axis',(1.,0.,0.));
#390=DIRECTION('ref_axis',(0.,1.,0.));
#391=DIRECTION('center_axis',(1.,0.,0.));
#392=DIRECTION('ref_axis',(0.,0.,-1.));
#393=DIRECTION('center_axis',(1.,0.,0.));
#394=DIRECTION('ref_axis',(0.,0.,-1.));
#395=DIRECTION('center_axis',(1.,0.,0.));
#396=DIRECTION('ref_axis',(0.,1.,0.));
#397=CARTESIAN_POINT('',(0.,0.,0.));
#398=CARTESIAN_POINT('Origin',(-59.,14.5,0.));
#399=CARTESIAN_POINT('',(-59.,14.5,0.));
#400=CARTESIAN_POINT('Origin',(-59.,0.,0.));
#401=CARTESIAN_POINT('',(-59.,13.45,0.));
#402=CARTESIAN_POINT('Origin',(-59.,0.,0.));
#403=CARTESIAN_POINT('Origin',(-66.4,0.,0.));
#404=CARTESIAN_POINT('',(-66.4,14.5,8.87839606521225E-16));
#405=CARTESIAN_POINT('Origin',(-66.4,0.,0.));
#406=CARTESIAN_POINT('',(-68.,16.1,4.92904057413508E-15));
#407=CARTESIAN_POINT('Origin',(-68.,0.,0.));
#408=CARTESIAN_POINT('Origin',(-63.5,0.,0.));
#409=CARTESIAN_POINT('Origin',(-68.,17.5,0.));
#410=CARTESIAN_POINT('',(-68.,17.5,0.));
#411=CARTESIAN_POINT('Origin',(-68.,0.,0.));
#412=CARTESIAN_POINT('Origin',(-69.5,0.,0.));
#413=CARTESIAN_POINT('',(-71.,17.5,0.));
#414=CARTESIAN_POINT('Origin',(-71.,0.,0.));
#415=CARTESIAN_POINT('Origin',(-71.,22.,0.));
#416=CARTESIAN_POINT('',(-71.,22.,0.));
#417=CARTESIAN_POINT('Origin',(-71.,0.,0.));
#418=CARTESIAN_POINT('Origin',(-75.7168764697291,0.,0.));
#419=CARTESIAN_POINT('',(-80.4337529394582,19.4722335182774,0.));
#420=CARTESIAN_POINT('Origin',(-80.4337529394582,0.,0.));
#421=CARTESIAN_POINT('Origin',(-80.7168764697291,0.,0.));
#422=CARTESIAN_POINT('',(-81.,13.,0.));
#423=CARTESIAN_POINT('Origin',(-81.,0.,0.));
#424=CARTESIAN_POINT('Origin',(-70.,0.,0.));
#425=CARTESIAN_POINT('',(-59.,13.,0.));
#426=CARTESIAN_POINT('Origin',(-59.,0.,0.));
#427=CARTESIAN_POINT('Origin',(-22.5,15.65,0.));
#428=CARTESIAN_POINT('',(-22.5,13.4382817644926,0.));
#429=CARTESIAN_POINT('Origin',(-22.5,0.,0.));
#430=CARTESIAN_POINT('',(-22.5,12.65,0.));
#431=CARTESIAN_POINT('Origin',(-22.5,0.,0.));
#432=CARTESIAN_POINT('Origin',(-30.,13.4382817644926,0.));
#433=CARTESIAN_POINT('',(-30.,-13.45,1.64714994485319E-15));
#434=CARTESIAN_POINT('Origin',(-30.,0.,0.));
#435=CARTESIAN_POINT('',(-30.,13.4382817644926,0.));
#436=CARTESIAN_POINT('Origin',(-30.,0.,0.));
#437=CARTESIAN_POINT('Origin',(-26.25,0.,0.));
#438=CARTESIAN_POINT('Origin',(-15.,15.65,0.));
#439=CARTESIAN_POINT('',(-15.,13.4382817644926,0.));
#440=CARTESIAN_POINT('Origin',(-15.,0.,0.));
#441=CARTESIAN_POINT('',(-15.,12.65,0.));
#442=CARTESIAN_POINT('Origin',(-15.,0.,0.));
#443=CARTESIAN_POINT('Origin',(-18.75,0.,0.));
#444=CARTESIAN_POINT('Origin',(-7.5,15.65,0.));
#445=CARTESIAN_POINT('',(-7.5,13.4382817644926,0.));
#446=CARTESIAN_POINT('Origin',(-7.5,0.,0.));
#447=CARTESIAN_POINT('',(-7.5,12.65,0.));
#448=CARTESIAN_POINT('Origin',(-7.5,0.,0.));
#449=CARTESIAN_POINT('Origin',(-11.25,0.,0.));
#450=CARTESIAN_POINT('Origin',(-3.75,0.,0.));
#451=CARTESIAN_POINT('',(0.,12.65,0.));
#452=CARTESIAN_POINT('Origin',(-2.22044604925031E-15,0.,0.));
#453=CARTESIAN_POINT('Origin',(-59.,13.45,0.));
#454=CARTESIAN_POINT('',(-59.,11.6,0.));
#455=CARTESIAN_POINT('Origin',(-59.,0.,0.));
#456=CARTESIAN_POINT('Origin',(-29.5,0.,0.));
#457=CARTESIAN_POINT('Origin',(-2.13088543051639E-15,11.6,0.));
#458=CARTESIAN_POINT('',(-2.13088543051639E-15,11.6,0.));
#459=CARTESIAN_POINT('Origin',(0.,0.,0.));
#460=CARTESIAN_POINT('Origin',(-29.5,0.,0.));
#461=UNCERTAINTY_MEASURE_WITH_UNIT(LENGTH_MEASURE(0.01),#465,
'DISTANCE_ACCURACY_VALUE',
'Maximum model space distance between geometric entities at asserted c
onnectivities');
#462=UNCERTAINTY_MEASURE_WITH_UNIT(LENGTH_MEASURE(1.E-6),#465,
'DISTANCE_ACCURACY_VALUE',
'Maximum model space distance between geometric entities at asserted c
onnectivities');
#463=(
GEOMETRIC_REPRESENTATION_CONTEXT(3)
GLOBAL_UNCERTAINTY_ASSIGNED_CONTEXT((#461))
GLOBAL_UNIT_ASSIGNED_CONTEXT((#465,#468,#466))
REPRESENTATION_CONTEXT('','3D')
);
#464=(
GEOMETRIC_REPRESENTATION_CONTEXT(3)
GLOBAL_UNCERTAINTY_ASSIGNED_CONTEXT((#462))
GLOBAL_UNIT_ASSIGNED_CONTEXT((#465,#468,#466))
REPRESENTATION_CONTEXT('','3D')
);
#465=(
LENGTH_UNIT()
NAMED_UNIT(*)
SI_UNIT(.MILLI.,.METRE.)
);
#466=(
NAMED_UNIT(*)
SI_UNIT($,.STERADIAN.)
SOLID_ANGLE_UNIT()
);
#467=DIMENSIONAL_EXPONENTS(0.,0.,0.,0.,0.,0.,0.);
#468=(
CONVERSION_BASED_UNIT('degree',#470)
NAMED_UNIT(#467)
PLANE_ANGLE_UNIT()
);
#469=(
NAMED_UNIT(*)
PLANE_ANGLE_UNIT()
SI_UNIT($,.RADIAN.)
);
#470=PLANE_ANGLE_MEASURE_WITH_UNIT(PLANE_ANGLE_MEASURE(0.01745329252),#469);
#471=SHAPE_DEFINITION_REPRESENTATION(#472,#473);
#472=PRODUCT_DEFINITION_SHAPE('',$,#475);
#473=SHAPE_REPRESENTATION('',(#268),#463);
#474=DESIGN_CONTEXT('part definition',#479,'design');
#475=PRODUCT_DEFINITION('26040025000','26040025000',#476,#474);
#476=PRODUCT_DEFINITION_FORMATION('',$,#481);
#477=PRODUCT_RELATED_PRODUCT_CATEGORY('26040025000','26040025000',(#481));
#478=APPLICATION_PROTOCOL_DEFINITION('international standard',
'ap203_configuration_controlled_3d_design_of_mechanical_parts_and_asse
mblies_mim_lf',2004,#479);
#479=APPLICATION_CONTEXT(
'Configuration Controlled 3D Design of Mechanical Parts and Assemblies');
#480=MECHANICAL_CONTEXT('part definition',#479,'mechanical');
#481=PRODUCT('26040025000','26040025000',$,(#480));
#482=PRESENTATION_STYLE_ASSIGNMENT((#483));
#483=SURFACE_STYLE_USAGE(.BOTH.,#484);
#484=SURFACE_SIDE_STYLE($,(#485));
#485=SURFACE_STYLE_FILL_AREA(#486);
#486=FILL_AREA_STYLE($,(#487));
#487=FILL_AREA_STYLE_COLOUR($,#488);
#488=COLOUR_RGB('',0.745098039215686,0.737254901960784,0.729411764705882);
ENDSEC;
END-ISO-10303-21;
