ISO-10303-21;
HEADER;
/* Generated by software containing ST-Developer
 * from STEP Tools, Inc. (www.steptools.com) 
 */

FILE_DESCRIPTION(
/* description */ (''),
/* implementation_level */ '2;1');

FILE_NAME(
/* name */ 
'C:\\Vault_Workspace\\DATA\\Katalog Bupospol\\2 Potrubn\X\ED d\X\EDly\\
2.6 Hadicov\X\E9 n\X\E1stavce\\26040\\26040\\26040032000.stp',
/* time_stamp */ '2016-03-08T11:46:12+01:00',
/* author */ ('Struska'),
/* organization */ ('BUPOSPOL'),
/* preprocessor_version */ 'ST-DEVELOPER v15.6',
/* originating_system */ 'Autodesk Inventor 2015',
/* authorisation */ '');

FILE_SCHEMA (('CONFIG_CONTROL_DESIGN'));
ENDSEC;

DATA;
#10=MECHANICAL_DESIGN_GEOMETRIC_PRESENTATION_REPRESENTATION('',(#244,#264,
#256,#258,#265,#262,#263,#245,#249,#250,#246,#251,#252,#247,#260,#257,#253,
#261,#254,#248,#255,#259,#266,#267),#506);
#11=SHAPE_REPRESENTATION_RELATIONSHIP('SRR','None',#515,#12);
#12=ADVANCED_BREP_SHAPE_REPRESENTATION($,(#13),#505);
#13=MANIFOLD_SOLID_BREP('T\X2\011B\X0\leso1',#291);
#14=CONICAL_SURFACE('',#306,23.7361167591387,15.);
#15=CONICAL_SURFACE('',#308,19.2361167591387,85.);
#16=CONICAL_SURFACE('',#318,16.5941408822463,6.00000000000001);
#17=CONICAL_SURFACE('',#322,16.5941408822463,6.00000000000001);
#18=CONICAL_SURFACE('',#326,16.5941408822463,6.00000000000001);
#19=CONICAL_SURFACE('',#330,16.5941408822463,6.00000000000001);
#20=CONICAL_SURFACE('',#331,16.5941408822463,6.00000000000001);
#21=CYLINDRICAL_SURFACE('',#299,17.5);
#22=CYLINDRICAL_SURFACE('',#302,20.5);
#23=CYLINDRICAL_SURFACE('',#310,16.);
#24=CYLINDRICAL_SURFACE('',#335,17.);
#25=CYLINDRICAL_SURFACE('',#338,15.2);
#26=TOROIDAL_SURFACE('',#296,19.1,1.6);
#27=FACE_BOUND('',#74,.T.);
#28=FACE_BOUND('',#76,.T.);
#29=FACE_BOUND('',#78,.T.);
#30=FACE_BOUND('',#80,.T.);
#31=FACE_BOUND('',#82,.T.);
#32=FACE_BOUND('',#84,.T.);
#33=FACE_BOUND('',#86,.T.);
#34=FACE_BOUND('',#88,.T.);
#35=FACE_BOUND('',#90,.T.);
#36=FACE_BOUND('',#92,.T.);
#37=FACE_BOUND('',#94,.T.);
#38=FACE_BOUND('',#96,.T.);
#39=FACE_BOUND('',#98,.T.);
#40=FACE_BOUND('',#100,.T.);
#41=FACE_BOUND('',#102,.T.);
#42=FACE_BOUND('',#104,.T.);
#43=FACE_BOUND('',#106,.T.);
#44=FACE_BOUND('',#108,.T.);
#45=FACE_BOUND('',#110,.T.);
#46=FACE_BOUND('',#112,.T.);
#47=FACE_BOUND('',#114,.T.);
#48=FACE_BOUND('',#116,.T.);
#49=FACE_BOUND('',#118,.T.);
#50=FACE_OUTER_BOUND('',#73,.T.);
#51=FACE_OUTER_BOUND('',#75,.T.);
#52=FACE_OUTER_BOUND('',#77,.T.);
#53=FACE_OUTER_BOUND('',#79,.T.);
#54=FACE_OUTER_BOUND('',#81,.T.);
#55=FACE_OUTER_BOUND('',#83,.T.);
#56=FACE_OUTER_BOUND('',#85,.T.);
#57=FACE_OUTER_BOUND('',#87,.T.);
#58=FACE_OUTER_BOUND('',#89,.T.);
#59=FACE_OUTER_BOUND('',#91,.T.);
#60=FACE_OUTER_BOUND('',#93,.T.);
#61=FACE_OUTER_BOUND('',#95,.T.);
#62=FACE_OUTER_BOUND('',#97,.T.);
#63=FACE_OUTER_BOUND('',#99,.T.);
#64=FACE_OUTER_BOUND('',#101,.T.);
#65=FACE_OUTER_BOUND('',#103,.T.);
#66=FACE_OUTER_BOUND('',#105,.T.);
#67=FACE_OUTER_BOUND('',#107,.T.);
#68=FACE_OUTER_BOUND('',#109,.T.);
#69=FACE_OUTER_BOUND('',#111,.T.);
#70=FACE_OUTER_BOUND('',#113,.T.);
#71=FACE_OUTER_BOUND('',#115,.T.);
#72=FACE_OUTER_BOUND('',#117,.T.);
#73=EDGE_LOOP('',(#188));
#74=EDGE_LOOP('',(#189));
#75=EDGE_LOOP('',(#190));
#76=EDGE_LOOP('',(#191));
#77=EDGE_LOOP('',(#192));
#78=EDGE_LOOP('',(#193));
#79=EDGE_LOOP('',(#194));
#80=EDGE_LOOP('',(#195));
#81=EDGE_LOOP('',(#196));
#82=EDGE_LOOP('',(#197));
#83=EDGE_LOOP('',(#198));
#84=EDGE_LOOP('',(#199));
#85=EDGE_LOOP('',(#200));
#86=EDGE_LOOP('',(#201));
#87=EDGE_LOOP('',(#202));
#88=EDGE_LOOP('',(#203));
#89=EDGE_LOOP('',(#204));
#90=EDGE_LOOP('',(#205));
#91=EDGE_LOOP('',(#206));
#92=EDGE_LOOP('',(#207));
#93=EDGE_LOOP('',(#208));
#94=EDGE_LOOP('',(#209));
#95=EDGE_LOOP('',(#210));
#96=EDGE_LOOP('',(#211));
#97=EDGE_LOOP('',(#212));
#98=EDGE_LOOP('',(#213));
#99=EDGE_LOOP('',(#214));
#100=EDGE_LOOP('',(#215));
#101=EDGE_LOOP('',(#216));
#102=EDGE_LOOP('',(#217));
#103=EDGE_LOOP('',(#218));
#104=EDGE_LOOP('',(#219));
#105=EDGE_LOOP('',(#220));
#106=EDGE_LOOP('',(#221));
#107=EDGE_LOOP('',(#222));
#108=EDGE_LOOP('',(#223));
#109=EDGE_LOOP('',(#224));
#110=EDGE_LOOP('',(#225));
#111=EDGE_LOOP('',(#226));
#112=EDGE_LOOP('',(#227));
#113=EDGE_LOOP('',(#228));
#114=EDGE_LOOP('',(#229));
#115=EDGE_LOOP('',(#230));
#116=EDGE_LOOP('',(#231));
#117=EDGE_LOOP('',(#232));
#118=EDGE_LOOP('',(#233));
#119=CIRCLE('',#294,17.5);
#120=CIRCLE('',#295,17.);
#121=CIRCLE('',#297,17.5);
#122=CIRCLE('',#298,19.1);
#123=CIRCLE('',#301,20.5);
#124=CIRCLE('',#303,20.5);
#125=CIRCLE('',#305,25.);
#126=CIRCLE('',#307,22.4722335182774);
#127=CIRCLE('',#309,16.);
#128=CIRCLE('',#311,16.);
#129=CIRCLE('',#313,16.9882817644926);
#130=CIRCLE('',#314,16.2);
#131=CIRCLE('',#316,17.);
#132=CIRCLE('',#317,16.9882817644926);
#133=CIRCLE('',#320,16.9882817644926);
#134=CIRCLE('',#321,16.2);
#135=CIRCLE('',#324,16.9882817644926);
#136=CIRCLE('',#325,16.2);
#137=CIRCLE('',#328,16.9882817644926);
#138=CIRCLE('',#329,16.2);
#139=CIRCLE('',#332,16.2);
#140=CIRCLE('',#334,15.2);
#141=CIRCLE('',#337,15.2);
#142=VERTEX_POINT('',#435);
#143=VERTEX_POINT('',#437);
#144=VERTEX_POINT('',#440);
#145=VERTEX_POINT('',#442);
#146=VERTEX_POINT('',#446);
#147=VERTEX_POINT('',#449);
#148=VERTEX_POINT('',#452);
#149=VERTEX_POINT('',#455);
#150=VERTEX_POINT('',#458);
#151=VERTEX_POINT('',#461);
#152=VERTEX_POINT('',#464);
#153=VERTEX_POINT('',#466);
#154=VERTEX_POINT('',#469);
#155=VERTEX_POINT('',#471);
#156=VERTEX_POINT('',#475);
#157=VERTEX_POINT('',#477);
#158=VERTEX_POINT('',#481);
#159=VERTEX_POINT('',#483);
#160=VERTEX_POINT('',#487);
#161=VERTEX_POINT('',#489);
#162=VERTEX_POINT('',#493);
#163=VERTEX_POINT('',#496);
#164=VERTEX_POINT('',#500);
#165=EDGE_CURVE('',#142,#142,#119,.T.);
#166=EDGE_CURVE('',#143,#143,#120,.T.);
#167=EDGE_CURVE('',#144,#144,#121,.T.);
#168=EDGE_CURVE('',#145,#145,#122,.T.);
#169=EDGE_CURVE('',#146,#146,#123,.T.);
#170=EDGE_CURVE('',#147,#147,#124,.T.);
#171=EDGE_CURVE('',#148,#148,#125,.T.);
#172=EDGE_CURVE('',#149,#149,#126,.T.);
#173=EDGE_CURVE('',#150,#150,#127,.T.);
#174=EDGE_CURVE('',#151,#151,#128,.T.);
#175=EDGE_CURVE('',#152,#152,#129,.T.);
#176=EDGE_CURVE('',#153,#153,#130,.T.);
#177=EDGE_CURVE('',#154,#154,#131,.T.);
#178=EDGE_CURVE('',#155,#155,#132,.T.);
#179=EDGE_CURVE('',#156,#156,#133,.T.);
#180=EDGE_CURVE('',#157,#157,#134,.T.);
#181=EDGE_CURVE('',#158,#158,#135,.T.);
#182=EDGE_CURVE('',#159,#159,#136,.T.);
#183=EDGE_CURVE('',#160,#160,#137,.T.);
#184=EDGE_CURVE('',#161,#161,#138,.T.);
#185=EDGE_CURVE('',#162,#162,#139,.T.);
#186=EDGE_CURVE('',#163,#163,#140,.T.);
#187=EDGE_CURVE('',#164,#164,#141,.T.);
#188=ORIENTED_EDGE('',*,*,#165,.F.);
#189=ORIENTED_EDGE('',*,*,#166,.F.);
#190=ORIENTED_EDGE('',*,*,#167,.T.);
#191=ORIENTED_EDGE('',*,*,#168,.T.);
#192=ORIENTED_EDGE('',*,*,#165,.T.);
#193=ORIENTED_EDGE('',*,*,#167,.F.);
#194=ORIENTED_EDGE('',*,*,#169,.F.);
#195=ORIENTED_EDGE('',*,*,#168,.F.);
#196=ORIENTED_EDGE('',*,*,#170,.F.);
#197=ORIENTED_EDGE('',*,*,#169,.T.);
#198=ORIENTED_EDGE('',*,*,#171,.F.);
#199=ORIENTED_EDGE('',*,*,#170,.T.);
#200=ORIENTED_EDGE('',*,*,#172,.F.);
#201=ORIENTED_EDGE('',*,*,#171,.T.);
#202=ORIENTED_EDGE('',*,*,#173,.F.);
#203=ORIENTED_EDGE('',*,*,#172,.T.);
#204=ORIENTED_EDGE('',*,*,#174,.F.);
#205=ORIENTED_EDGE('',*,*,#173,.T.);
#206=ORIENTED_EDGE('',*,*,#175,.T.);
#207=ORIENTED_EDGE('',*,*,#176,.F.);
#208=ORIENTED_EDGE('',*,*,#177,.F.);
#209=ORIENTED_EDGE('',*,*,#178,.T.);
#210=ORIENTED_EDGE('',*,*,#176,.T.);
#211=ORIENTED_EDGE('',*,*,#178,.F.);
#212=ORIENTED_EDGE('',*,*,#179,.T.);
#213=ORIENTED_EDGE('',*,*,#180,.F.);
#214=ORIENTED_EDGE('',*,*,#180,.T.);
#215=ORIENTED_EDGE('',*,*,#175,.F.);
#216=ORIENTED_EDGE('',*,*,#181,.T.);
#217=ORIENTED_EDGE('',*,*,#182,.F.);
#218=ORIENTED_EDGE('',*,*,#182,.T.);
#219=ORIENTED_EDGE('',*,*,#179,.F.);
#220=ORIENTED_EDGE('',*,*,#183,.T.);
#221=ORIENTED_EDGE('',*,*,#184,.F.);
#222=ORIENTED_EDGE('',*,*,#184,.T.);
#223=ORIENTED_EDGE('',*,*,#181,.F.);
#224=ORIENTED_EDGE('',*,*,#185,.F.);
#225=ORIENTED_EDGE('',*,*,#183,.F.);
#226=ORIENTED_EDGE('',*,*,#174,.T.);
#227=ORIENTED_EDGE('',*,*,#186,.T.);
#228=ORIENTED_EDGE('',*,*,#177,.T.);
#229=ORIENTED_EDGE('',*,*,#166,.T.);
#230=ORIENTED_EDGE('',*,*,#185,.T.);
#231=ORIENTED_EDGE('',*,*,#187,.F.);
#232=ORIENTED_EDGE('',*,*,#187,.T.);
#233=ORIENTED_EDGE('',*,*,#186,.F.);
#234=PLANE('',#293);
#235=PLANE('',#300);
#236=PLANE('',#304);
#237=PLANE('',#312);
#238=PLANE('',#315);
#239=PLANE('',#319);
#240=PLANE('',#323);
#241=PLANE('',#327);
#242=PLANE('',#333);
#243=PLANE('',#336);
#244=STYLED_ITEM('',(#524),#268);
#245=STYLED_ITEM('',(#524),#269);
#246=STYLED_ITEM('',(#524),#270);
#247=STYLED_ITEM('',(#524),#271);
#248=STYLED_ITEM('',(#524),#272);
#249=STYLED_ITEM('',(#524),#273);
#250=STYLED_ITEM('',(#524),#274);
#251=STYLED_ITEM('',(#524),#275);
#252=STYLED_ITEM('',(#524),#276);
#253=STYLED_ITEM('',(#524),#277);
#254=STYLED_ITEM('',(#524),#278);
#255=STYLED_ITEM('',(#524),#279);
#256=STYLED_ITEM('',(#524),#280);
#257=STYLED_ITEM('',(#524),#281);
#258=STYLED_ITEM('',(#524),#282);
#259=STYLED_ITEM('',(#524),#283);
#260=STYLED_ITEM('',(#524),#284);
#261=STYLED_ITEM('',(#524),#285);
#262=STYLED_ITEM('',(#524),#286);
#263=STYLED_ITEM('',(#524),#287);
#264=STYLED_ITEM('',(#524),#288);
#265=STYLED_ITEM('',(#524),#289);
#266=STYLED_ITEM('',(#524),#290);
#267=STYLED_ITEM('',(#524),#13);
#268=ADVANCED_FACE('',(#50,#27),#234,.T.);
#269=ADVANCED_FACE('',(#51,#28),#26,.F.);
#270=ADVANCED_FACE('',(#52,#29),#21,.T.);
#271=ADVANCED_FACE('',(#53,#30),#235,.T.);
#272=ADVANCED_FACE('',(#54,#31),#22,.T.);
#273=ADVANCED_FACE('',(#55,#32),#236,.T.);
#274=ADVANCED_FACE('',(#56,#33),#14,.T.);
#275=ADVANCED_FACE('',(#57,#34),#15,.T.);
#276=ADVANCED_FACE('',(#58,#35),#23,.F.);
#277=ADVANCED_FACE('',(#59,#36),#237,.F.);
#278=ADVANCED_FACE('',(#60,#37),#238,.F.);
#279=ADVANCED_FACE('',(#61,#38),#16,.T.);
#280=ADVANCED_FACE('',(#62,#39),#239,.F.);
#281=ADVANCED_FACE('',(#63,#40),#17,.T.);
#282=ADVANCED_FACE('',(#64,#41),#240,.F.);
#283=ADVANCED_FACE('',(#65,#42),#18,.T.);
#284=ADVANCED_FACE('',(#66,#43),#241,.F.);
#285=ADVANCED_FACE('',(#67,#44),#19,.T.);
#286=ADVANCED_FACE('',(#68,#45),#20,.T.);
#287=ADVANCED_FACE('',(#69,#46),#242,.T.);
#288=ADVANCED_FACE('',(#70,#47),#24,.T.);
#289=ADVANCED_FACE('',(#71,#48),#243,.T.);
#290=ADVANCED_FACE('',(#72,#49),#25,.F.);
#291=CLOSED_SHELL('',(#268,#269,#270,#271,#272,#273,#274,#275,#276,#277,
#278,#279,#280,#281,#282,#283,#284,#285,#286,#287,#288,#289,#290));
#292=AXIS2_PLACEMENT_3D('placement',#433,#339,#340);
#293=AXIS2_PLACEMENT_3D('',#434,#341,#342);
#294=AXIS2_PLACEMENT_3D('',#436,#343,#344);
#295=AXIS2_PLACEMENT_3D('',#438,#345,#346);
#296=AXIS2_PLACEMENT_3D('',#439,#347,#348);
#297=AXIS2_PLACEMENT_3D('',#441,#349,#350);
#298=AXIS2_PLACEMENT_3D('',#443,#351,#352);
#299=AXIS2_PLACEMENT_3D('',#444,#353,#354);
#300=AXIS2_PLACEMENT_3D('',#445,#355,#356);
#301=AXIS2_PLACEMENT_3D('',#447,#357,#358);
#302=AXIS2_PLACEMENT_3D('',#448,#359,#360);
#303=AXIS2_PLACEMENT_3D('',#450,#361,#362);
#304=AXIS2_PLACEMENT_3D('',#451,#363,#364);
#305=AXIS2_PLACEMENT_3D('',#453,#365,#366);
#306=AXIS2_PLACEMENT_3D('',#454,#367,#368);
#307=AXIS2_PLACEMENT_3D('',#456,#369,#370);
#308=AXIS2_PLACEMENT_3D('',#457,#371,#372);
#309=AXIS2_PLACEMENT_3D('',#459,#373,#374);
#310=AXIS2_PLACEMENT_3D('',#460,#375,#376);
#311=AXIS2_PLACEMENT_3D('',#462,#377,#378);
#312=AXIS2_PLACEMENT_3D('',#463,#379,#380);
#313=AXIS2_PLACEMENT_3D('',#465,#381,#382);
#314=AXIS2_PLACEMENT_3D('',#467,#383,#384);
#315=AXIS2_PLACEMENT_3D('',#468,#385,#386);
#316=AXIS2_PLACEMENT_3D('',#470,#387,#388);
#317=AXIS2_PLACEMENT_3D('',#472,#389,#390);
#318=AXIS2_PLACEMENT_3D('',#473,#391,#392);
#319=AXIS2_PLACEMENT_3D('',#474,#393,#394);
#320=AXIS2_PLACEMENT_3D('',#476,#395,#396);
#321=AXIS2_PLACEMENT_3D('',#478,#397,#398);
#322=AXIS2_PLACEMENT_3D('',#479,#399,#400);
#323=AXIS2_PLACEMENT_3D('',#480,#401,#402);
#324=AXIS2_PLACEMENT_3D('',#482,#403,#404);
#325=AXIS2_PLACEMENT_3D('',#484,#405,#406);
#326=AXIS2_PLACEMENT_3D('',#485,#407,#408);
#327=AXIS2_PLACEMENT_3D('',#486,#409,#410);
#328=AXIS2_PLACEMENT_3D('',#488,#411,#412);
#329=AXIS2_PLACEMENT_3D('',#490,#413,#414);
#330=AXIS2_PLACEMENT_3D('',#491,#415,#416);
#331=AXIS2_PLACEMENT_3D('',#492,#417,#418);
#332=AXIS2_PLACEMENT_3D('',#494,#419,#420);
#333=AXIS2_PLACEMENT_3D('',#495,#421,#422);
#334=AXIS2_PLACEMENT_3D('',#497,#423,#424);
#335=AXIS2_PLACEMENT_3D('',#498,#425,#426);
#336=AXIS2_PLACEMENT_3D('',#499,#427,#428);
#337=AXIS2_PLACEMENT_3D('',#501,#429,#430);
#338=AXIS2_PLACEMENT_3D('',#502,#431,#432);
#339=DIRECTION('axis',(0.,0.,1.));
#340=DIRECTION('refdir',(1.,0.,0.));
#341=DIRECTION('center_axis',(1.,0.,0.));
#342=DIRECTION('ref_axis',(0.,0.,-1.));
#343=DIRECTION('center_axis',(-1.,0.,0.));
#344=DIRECTION('ref_axis',(0.,0.,1.));
#345=DIRECTION('center_axis',(1.,0.,0.));
#346=DIRECTION('ref_axis',(0.,0.,-1.));
#347=DIRECTION('center_axis',(-1.,0.,0.));
#348=DIRECTION('ref_axis',(0.,0.,1.));
#349=DIRECTION('center_axis',(-1.,0.,0.));
#350=DIRECTION('ref_axis',(0.,-1.,-1.83690953073357E-16));
#351=DIRECTION('center_axis',(1.,0.,0.));
#352=DIRECTION('ref_axis',(0.,-1.,-1.83690953073357E-16));
#353=DIRECTION('center_axis',(-1.,0.,0.));
#354=DIRECTION('ref_axis',(0.,1.,0.));
#355=DIRECTION('center_axis',(1.,0.,0.));
#356=DIRECTION('ref_axis',(0.,0.,-1.));
#357=DIRECTION('center_axis',(-1.,0.,0.));
#358=DIRECTION('ref_axis',(0.,0.,1.));
#359=DIRECTION('center_axis',(-1.,0.,0.));
#360=DIRECTION('ref_axis',(0.,1.,0.));
#361=DIRECTION('center_axis',(-1.,0.,0.));
#362=DIRECTION('ref_axis',(0.,0.,1.));
#363=DIRECTION('center_axis',(1.,0.,0.));
#364=DIRECTION('ref_axis',(0.,0.,-1.));
#365=DIRECTION('center_axis',(-1.,0.,0.));
#366=DIRECTION('ref_axis',(0.,0.,1.));
#367=DIRECTION('center_axis',(1.,0.,0.));
#368=DIRECTION('ref_axis',(0.,1.,0.));
#369=DIRECTION('center_axis',(-1.,0.,0.));
#370=DIRECTION('ref_axis',(0.,0.,1.));
#371=DIRECTION('center_axis',(1.,0.,0.));
#372=DIRECTION('ref_axis',(0.,1.,0.));
#373=DIRECTION('center_axis',(-1.,0.,0.));
#374=DIRECTION('ref_axis',(0.,0.,1.));
#375=DIRECTION('center_axis',(-1.,0.,0.));
#376=DIRECTION('ref_axis',(0.,1.,0.));
#377=DIRECTION('center_axis',(-1.,0.,0.));
#378=DIRECTION('ref_axis',(0.,1.,0.));
#379=DIRECTION('center_axis',(1.,0.,0.));
#380=DIRECTION('ref_axis',(0.,0.,-1.));
#381=DIRECTION('center_axis',(-1.,0.,0.));
#382=DIRECTION('ref_axis',(0.,0.,1.));
#383=DIRECTION('center_axis',(-1.,0.,0.));
#384=DIRECTION('ref_axis',(0.,0.,1.));
#385=DIRECTION('center_axis',(-1.,0.,0.));
#386=DIRECTION('ref_axis',(0.,0.,1.));
#387=DIRECTION('center_axis',(-1.,0.,0.));
#388=DIRECTION('ref_axis',(0.,1.,0.));
#389=DIRECTION('center_axis',(-1.,0.,0.));
#390=DIRECTION('ref_axis',(0.,0.,1.));
#391=DIRECTION('center_axis',(-1.,0.,0.));
#392=DIRECTION('ref_axis',(0.,1.,0.));
#393=DIRECTION('center_axis',(1.,0.,0.));
#394=DIRECTION('ref_axis',(0.,0.,-1.));
#395=DIRECTION('center_axis',(-1.,0.,0.));
#396=DIRECTION('ref_axis',(0.,0.,1.));
#397=DIRECTION('center_axis',(-1.,0.,0.));
#398=DIRECTION('ref_axis',(0.,0.,1.));
#399=DIRECTION('center_axis',(-1.,0.,0.));
#400=DIRECTION('ref_axis',(0.,1.,0.));
#401=DIRECTION('center_axis',(1.,0.,0.));
#402=DIRECTION('ref_axis',(0.,0.,-1.));
#403=DIRECTION('center_axis',(-1.,0.,0.));
#404=DIRECTION('ref_axis',(0.,0.,1.));
#405=DIRECTION('center_axis',(-1.,0.,0.));
#406=DIRECTION('ref_axis',(0.,0.,1.));
#407=DIRECTION('center_axis',(-1.,0.,0.));
#408=DIRECTION('ref_axis',(0.,1.,0.));
#409=DIRECTION('center_axis',(1.,0.,0.));
#410=DIRECTION('ref_axis',(0.,0.,-1.));
#411=DIRECTION('center_axis',(-1.,0.,0.));
#412=DIRECTION('ref_axis',(0.,0.,1.));
#413=DIRECTION('center_axis',(-1.,0.,0.));
#414=DIRECTION('ref_axis',(0.,0.,1.));
#415=DIRECTION('center_axis',(-1.,0.,0.));
#416=DIRECTION('ref_axis',(0.,1.,0.));
#417=DIRECTION('center_axis',(-1.,0.,0.));
#418=DIRECTION('ref_axis',(0.,1.,0.));
#419=DIRECTION('center_axis',(1.,0.,0.));
#420=DIRECTION('ref_axis',(0.,1.,0.));
#421=DIRECTION('center_axis',(-1.,0.,0.));
#422=DIRECTION('ref_axis',(0.,0.,1.));
#423=DIRECTION('center_axis',(1.,0.,0.));
#424=DIRECTION('ref_axis',(0.,0.,-1.));
#425=DIRECTION('center_axis',(1.,0.,0.));
#426=DIRECTION('ref_axis',(0.,1.,0.));
#427=DIRECTION('center_axis',(1.,0.,0.));
#428=DIRECTION('ref_axis',(0.,0.,-1.));
#429=DIRECTION('center_axis',(1.,0.,0.));
#430=DIRECTION('ref_axis',(0.,0.,-1.));
#431=DIRECTION('center_axis',(1.,0.,0.));
#432=DIRECTION('ref_axis',(0.,1.,0.));
#433=CARTESIAN_POINT('',(0.,0.,0.));
#434=CARTESIAN_POINT('Origin',(-62.,17.5,0.));
#435=CARTESIAN_POINT('',(-62.,17.5,0.));
#436=CARTESIAN_POINT('Origin',(-62.,0.,0.));
#437=CARTESIAN_POINT('',(-62.,17.,0.));
#438=CARTESIAN_POINT('Origin',(-62.,0.,0.));
#439=CARTESIAN_POINT('Origin',(-72.4,0.,0.));
#440=CARTESIAN_POINT('',(-72.4,17.5,1.07153055959458E-15));
#441=CARTESIAN_POINT('Origin',(-72.4,0.,0.));
#442=CARTESIAN_POINT('',(-74.,19.1,5.84749533950186E-15));
#443=CARTESIAN_POINT('Origin',(-74.,0.,0.));
#444=CARTESIAN_POINT('Origin',(-68.,0.,0.));
#445=CARTESIAN_POINT('Origin',(-74.,20.5,0.));
#446=CARTESIAN_POINT('',(-74.,20.5,0.));
#447=CARTESIAN_POINT('Origin',(-74.,0.,0.));
#448=CARTESIAN_POINT('Origin',(-75.5,0.,0.));
#449=CARTESIAN_POINT('',(-77.,20.5,0.));
#450=CARTESIAN_POINT('Origin',(-77.,0.,0.));
#451=CARTESIAN_POINT('Origin',(-77.,25.,0.));
#452=CARTESIAN_POINT('',(-77.,25.,0.));
#453=CARTESIAN_POINT('Origin',(-77.,0.,0.));
#454=CARTESIAN_POINT('Origin',(-81.7168764697291,0.,0.));
#455=CARTESIAN_POINT('',(-86.4337529394582,22.4722335182774,0.));
#456=CARTESIAN_POINT('Origin',(-86.4337529394582,0.,0.));
#457=CARTESIAN_POINT('Origin',(-86.7168764697291,0.,0.));
#458=CARTESIAN_POINT('',(-87.,16.,0.));
#459=CARTESIAN_POINT('Origin',(-87.,0.,0.));
#460=CARTESIAN_POINT('Origin',(-74.5,0.,0.));
#461=CARTESIAN_POINT('',(-62.,16.,0.));
#462=CARTESIAN_POINT('Origin',(-62.,0.,0.));
#463=CARTESIAN_POINT('Origin',(-30.,19.2,0.));
#464=CARTESIAN_POINT('',(-30.,16.9882817644926,0.));
#465=CARTESIAN_POINT('Origin',(-30.,0.,0.));
#466=CARTESIAN_POINT('',(-30.,16.2,0.));
#467=CARTESIAN_POINT('Origin',(-30.,0.,0.));
#468=CARTESIAN_POINT('Origin',(-37.5,16.9882817644926,0.));
#469=CARTESIAN_POINT('',(-37.5,-17.,2.0818995585505E-15));
#470=CARTESIAN_POINT('Origin',(-37.5,0.,0.));
#471=CARTESIAN_POINT('',(-37.5,16.9882817644926,0.));
#472=CARTESIAN_POINT('Origin',(-37.5,0.,0.));
#473=CARTESIAN_POINT('Origin',(-33.75,0.,0.));
#474=CARTESIAN_POINT('Origin',(-22.5,19.2,0.));
#475=CARTESIAN_POINT('',(-22.5,16.9882817644926,0.));
#476=CARTESIAN_POINT('Origin',(-22.5,0.,0.));
#477=CARTESIAN_POINT('',(-22.5,16.2,0.));
#478=CARTESIAN_POINT('Origin',(-22.5,0.,0.));
#479=CARTESIAN_POINT('Origin',(-26.25,0.,0.));
#480=CARTESIAN_POINT('Origin',(-15.,19.2,0.));
#481=CARTESIAN_POINT('',(-15.,16.9882817644926,0.));
#482=CARTESIAN_POINT('Origin',(-15.,0.,0.));
#483=CARTESIAN_POINT('',(-15.,16.2,0.));
#484=CARTESIAN_POINT('Origin',(-15.,0.,0.));
#485=CARTESIAN_POINT('Origin',(-18.75,0.,0.));
#486=CARTESIAN_POINT('Origin',(-7.5,19.2,0.));
#487=CARTESIAN_POINT('',(-7.50000000000001,16.9882817644926,0.));
#488=CARTESIAN_POINT('Origin',(-7.50000000000001,0.,0.));
#489=CARTESIAN_POINT('',(-7.5,16.2,0.));
#490=CARTESIAN_POINT('Origin',(-7.5,0.,0.));
#491=CARTESIAN_POINT('Origin',(-11.25,0.,0.));
#492=CARTESIAN_POINT('Origin',(-3.75,0.,0.));
#493=CARTESIAN_POINT('',(0.,16.2,0.));
#494=CARTESIAN_POINT('Origin',(-2.77555756156289E-15,0.,0.));
#495=CARTESIAN_POINT('Origin',(-62.,17.,0.));
#496=CARTESIAN_POINT('',(-62.,15.2,0.));
#497=CARTESIAN_POINT('Origin',(-62.,0.,0.));
#498=CARTESIAN_POINT('Origin',(-31.,0.,0.));
#499=CARTESIAN_POINT('Origin',(-2.79219470205596E-15,15.2,0.));
#500=CARTESIAN_POINT('',(-2.79219470205596E-15,15.2,0.));
#501=CARTESIAN_POINT('Origin',(-4.44089209850063E-15,0.,0.));
#502=CARTESIAN_POINT('Origin',(-31.,0.,0.));
#503=UNCERTAINTY_MEASURE_WITH_UNIT(LENGTH_MEASURE(0.01),#507,
'DISTANCE_ACCURACY_VALUE',
'Maximum model space distance between geometric entities at asserted c
onnectivities');
#504=UNCERTAINTY_MEASURE_WITH_UNIT(LENGTH_MEASURE(1.E-6),#507,
'DISTANCE_ACCURACY_VALUE',
'Maximum model space distance between geometric entities at asserted c
onnectivities');
#505=(
GEOMETRIC_REPRESENTATION_CONTEXT(3)
GLOBAL_UNCERTAINTY_ASSIGNED_CONTEXT((#503))
GLOBAL_UNIT_ASSIGNED_CONTEXT((#507,#510,#508))
REPRESENTATION_CONTEXT('','3D')
);
#506=(
GEOMETRIC_REPRESENTATION_CONTEXT(3)
GLOBAL_UNCERTAINTY_ASSIGNED_CONTEXT((#504))
GLOBAL_UNIT_ASSIGNED_CONTEXT((#507,#510,#508))
REPRESENTATION_CONTEXT('','3D')
);
#507=(
LENGTH_UNIT()
NAMED_UNIT(*)
SI_UNIT(.MILLI.,.METRE.)
);
#508=(
NAMED_UNIT(*)
SI_UNIT($,.STERADIAN.)
SOLID_ANGLE_UNIT()
);
#509=DIMENSIONAL_EXPONENTS(0.,0.,0.,0.,0.,0.,0.);
#510=(
CONVERSION_BASED_UNIT('degree',#512)
NAMED_UNIT(#509)
PLANE_ANGLE_UNIT()
);
#511=(
NAMED_UNIT(*)
PLANE_ANGLE_UNIT()
SI_UNIT($,.RADIAN.)
);
#512=PLANE_ANGLE_MEASURE_WITH_UNIT(PLANE_ANGLE_MEASURE(0.01745329252),#511);
#513=SHAPE_DEFINITION_REPRESENTATION(#514,#515);
#514=PRODUCT_DEFINITION_SHAPE('',$,#517);
#515=SHAPE_REPRESENTATION('',(#292),#505);
#516=DESIGN_CONTEXT('part definition',#521,'design');
#517=PRODUCT_DEFINITION('26040032000','26040032000',#518,#516);
#518=PRODUCT_DEFINITION_FORMATION('',$,#523);
#519=PRODUCT_RELATED_PRODUCT_CATEGORY('26040032000','26040032000',(#523));
#520=APPLICATION_PROTOCOL_DEFINITION('international standard',
'ap203_configuration_controlled_3d_design_of_mechanical_parts_and_asse
mblies_mim_lf',2004,#521);
#521=APPLICATION_CONTEXT(
'Configuration Controlled 3D Design of Mechanical Parts and Assemblies');
#522=MECHANICAL_CONTEXT('part definition',#521,'mechanical');
#523=PRODUCT('26040032000','26040032000',$,(#522));
#524=PRESENTATION_STYLE_ASSIGNMENT((#525));
#525=SURFACE_STYLE_USAGE(.BOTH.,#526);
#526=SURFACE_SIDE_STYLE($,(#527));
#527=SURFACE_STYLE_FILL_AREA(#528);
#528=FILL_AREA_STYLE($,(#529));
#529=FILL_AREA_STYLE_COLOUR($,#530);
#530=COLOUR_RGB('',0.745098039215686,0.737254901960784,0.729411764705882);
ENDSEC;
END-ISO-10303-21;
