ISO-10303-21;
HEADER;
/* Generated by software containing ST-Developer
 * from STEP Tools, Inc. (www.steptools.com) 
 */

FILE_DESCRIPTION(
/* description */ (''),
/* implementation_level */ '2;1');

FILE_NAME(
/* name */ 
'C:\\Vault_Workspace\\DATA\\Katalog Bupospol\\2 Potrubn\X\ED d\X\EDly\\
2.6 Hadicov\X\E9 n\X\E1stavce\\26040\\26040\\26040050000.stp',
/* time_stamp */ '2016-03-08T11:46:21+01:00',
/* author */ ('Struska'),
/* organization */ ('BUPOSPOL'),
/* preprocessor_version */ 'ST-DEVELOPER v15.6',
/* originating_system */ 'Autodesk Inventor 2015',
/* authorisation */ '');

FILE_SCHEMA (('CONFIG_CONTROL_DESIGN'));
ENDSEC;

DATA;
#10=MECHANICAL_DESIGN_GEOMETRIC_PRESENTATION_REPRESENTATION('',(#293,#290,
#275,#278,#295,#274,#279,#277,#294,#281,#286,#282,#285,#292,#287,#283,#291,
#280,#284,#288,#276,#289,#296,#297,#298,#299,#300),#569);
#11=SHAPE_REPRESENTATION_RELATIONSHIP('SRR','None',#578,#12);
#12=ADVANCED_BREP_SHAPE_REPRESENTATION($,(#13),#568);
#13=MANIFOLD_SOLID_BREP('T\X2\011B\X0\leso1',#327);
#14=CONICAL_SURFACE('',#342,32.8519267254035,15.);
#15=CONICAL_SURFACE('',#344,28.2269267254035,85.);
#16=CONICAL_SURFACE('',#351,25.7255211763284,5.99999999999995);
#17=CONICAL_SURFACE('',#356,25.7255211763284,5.99999999999995);
#18=CONICAL_SURFACE('',#361,25.7255211763284,5.99999999999995);
#19=CONICAL_SURFACE('',#366,25.7255211763284,5.99999999999995);
#20=CONICAL_SURFACE('',#372,25.7255211763284,5.99999999999995);
#21=CYLINDRICAL_SURFACE('',#335,26.5);
#22=CYLINDRICAL_SURFACE('',#338,30.5);
#23=CYLINDRICAL_SURFACE('',#346,25.);
#24=CYLINDRICAL_SURFACE('',#368,26.25);
#25=CYLINDRICAL_SURFACE('',#369,26.25);
#26=CYLINDRICAL_SURFACE('',#370,26.25);
#27=CYLINDRICAL_SURFACE('',#371,26.25);
#28=CYLINDRICAL_SURFACE('',#377,26.25);
#29=CYLINDRICAL_SURFACE('',#380,23.5);
#30=TOROIDAL_SURFACE('',#332,28.1,1.6);
#31=FACE_BOUND('',#84,.T.);
#32=FACE_BOUND('',#86,.T.);
#33=FACE_BOUND('',#88,.T.);
#34=FACE_BOUND('',#90,.T.);
#35=FACE_BOUND('',#92,.T.);
#36=FACE_BOUND('',#94,.T.);
#37=FACE_BOUND('',#96,.T.);
#38=FACE_BOUND('',#98,.T.);
#39=FACE_BOUND('',#100,.T.);
#40=FACE_BOUND('',#102,.T.);
#41=FACE_BOUND('',#104,.T.);
#42=FACE_BOUND('',#106,.T.);
#43=FACE_BOUND('',#108,.T.);
#44=FACE_BOUND('',#110,.T.);
#45=FACE_BOUND('',#112,.T.);
#46=FACE_BOUND('',#114,.T.);
#47=FACE_BOUND('',#116,.T.);
#48=FACE_BOUND('',#118,.T.);
#49=FACE_BOUND('',#120,.T.);
#50=FACE_BOUND('',#122,.T.);
#51=FACE_BOUND('',#124,.T.);
#52=FACE_BOUND('',#126,.T.);
#53=FACE_BOUND('',#128,.T.);
#54=FACE_BOUND('',#130,.T.);
#55=FACE_BOUND('',#132,.T.);
#56=FACE_BOUND('',#134,.T.);
#57=FACE_OUTER_BOUND('',#83,.T.);
#58=FACE_OUTER_BOUND('',#85,.T.);
#59=FACE_OUTER_BOUND('',#87,.T.);
#60=FACE_OUTER_BOUND('',#89,.T.);
#61=FACE_OUTER_BOUND('',#91,.T.);
#62=FACE_OUTER_BOUND('',#93,.T.);
#63=FACE_OUTER_BOUND('',#95,.T.);
#64=FACE_OUTER_BOUND('',#97,.T.);
#65=FACE_OUTER_BOUND('',#99,.T.);
#66=FACE_OUTER_BOUND('',#101,.T.);
#67=FACE_OUTER_BOUND('',#103,.T.);
#68=FACE_OUTER_BOUND('',#105,.T.);
#69=FACE_OUTER_BOUND('',#107,.T.);
#70=FACE_OUTER_BOUND('',#109,.T.);
#71=FACE_OUTER_BOUND('',#111,.T.);
#72=FACE_OUTER_BOUND('',#113,.T.);
#73=FACE_OUTER_BOUND('',#115,.T.);
#74=FACE_OUTER_BOUND('',#117,.T.);
#75=FACE_OUTER_BOUND('',#119,.T.);
#76=FACE_OUTER_BOUND('',#121,.T.);
#77=FACE_OUTER_BOUND('',#123,.T.);
#78=FACE_OUTER_BOUND('',#125,.T.);
#79=FACE_OUTER_BOUND('',#127,.T.);
#80=FACE_OUTER_BOUND('',#129,.T.);
#81=FACE_OUTER_BOUND('',#131,.T.);
#82=FACE_OUTER_BOUND('',#133,.T.);
#83=EDGE_LOOP('',(#213));
#84=EDGE_LOOP('',(#214));
#85=EDGE_LOOP('',(#215));
#86=EDGE_LOOP('',(#216));
#87=EDGE_LOOP('',(#217));
#88=EDGE_LOOP('',(#218));
#89=EDGE_LOOP('',(#219));
#90=EDGE_LOOP('',(#220));
#91=EDGE_LOOP('',(#221));
#92=EDGE_LOOP('',(#222));
#93=EDGE_LOOP('',(#223));
#94=EDGE_LOOP('',(#224));
#95=EDGE_LOOP('',(#225));
#96=EDGE_LOOP('',(#226));
#97=EDGE_LOOP('',(#227));
#98=EDGE_LOOP('',(#228));
#99=EDGE_LOOP('',(#229));
#100=EDGE_LOOP('',(#230));
#101=EDGE_LOOP('',(#231));
#102=EDGE_LOOP('',(#232));
#103=EDGE_LOOP('',(#233));
#104=EDGE_LOOP('',(#234));
#105=EDGE_LOOP('',(#235));
#106=EDGE_LOOP('',(#236));
#107=EDGE_LOOP('',(#237));
#108=EDGE_LOOP('',(#238));
#109=EDGE_LOOP('',(#239));
#110=EDGE_LOOP('',(#240));
#111=EDGE_LOOP('',(#241));
#112=EDGE_LOOP('',(#242));
#113=EDGE_LOOP('',(#243));
#114=EDGE_LOOP('',(#244));
#115=EDGE_LOOP('',(#245));
#116=EDGE_LOOP('',(#246));
#117=EDGE_LOOP('',(#247));
#118=EDGE_LOOP('',(#248));
#119=EDGE_LOOP('',(#249));
#120=EDGE_LOOP('',(#250));
#121=EDGE_LOOP('',(#251));
#122=EDGE_LOOP('',(#252));
#123=EDGE_LOOP('',(#253));
#124=EDGE_LOOP('',(#254));
#125=EDGE_LOOP('',(#255));
#126=EDGE_LOOP('',(#256));
#127=EDGE_LOOP('',(#257));
#128=EDGE_LOOP('',(#258));
#129=EDGE_LOOP('',(#259));
#130=EDGE_LOOP('',(#260));
#131=EDGE_LOOP('',(#261));
#132=EDGE_LOOP('',(#262));
#133=EDGE_LOOP('',(#263));
#134=EDGE_LOOP('',(#264));
#135=CIRCLE('',#330,26.5);
#136=CIRCLE('',#331,26.25);
#137=CIRCLE('',#333,26.5);
#138=CIRCLE('',#334,28.1);
#139=CIRCLE('',#337,30.5);
#140=CIRCLE('',#339,30.5);
#141=CIRCLE('',#341,34.25);
#142=CIRCLE('',#343,31.453853450807);
#143=CIRCLE('',#345,25.);
#144=CIRCLE('',#347,25.);
#145=CIRCLE('',#349,26.25);
#146=CIRCLE('',#350,25.2);
#147=CIRCLE('',#352,26.25);
#148=CIRCLE('',#354,26.25);
#149=CIRCLE('',#355,25.2);
#150=CIRCLE('',#357,26.25);
#151=CIRCLE('',#359,26.25);
#152=CIRCLE('',#360,25.2);
#153=CIRCLE('',#362,26.25);
#154=CIRCLE('',#364,26.25);
#155=CIRCLE('',#365,25.2);
#156=CIRCLE('',#367,26.25);
#157=CIRCLE('',#373,26.25);
#158=CIRCLE('',#374,25.2);
#159=CIRCLE('',#376,23.5);
#160=CIRCLE('',#379,23.5);
#161=VERTEX_POINT('',#489);
#162=VERTEX_POINT('',#491);
#163=VERTEX_POINT('',#494);
#164=VERTEX_POINT('',#496);
#165=VERTEX_POINT('',#500);
#166=VERTEX_POINT('',#503);
#167=VERTEX_POINT('',#506);
#168=VERTEX_POINT('',#509);
#169=VERTEX_POINT('',#512);
#170=VERTEX_POINT('',#515);
#171=VERTEX_POINT('',#518);
#172=VERTEX_POINT('',#520);
#173=VERTEX_POINT('',#523);
#174=VERTEX_POINT('',#526);
#175=VERTEX_POINT('',#528);
#176=VERTEX_POINT('',#531);
#177=VERTEX_POINT('',#534);
#178=VERTEX_POINT('',#536);
#179=VERTEX_POINT('',#539);
#180=VERTEX_POINT('',#542);
#181=VERTEX_POINT('',#544);
#182=VERTEX_POINT('',#547);
#183=VERTEX_POINT('',#554);
#184=VERTEX_POINT('',#556);
#185=VERTEX_POINT('',#559);
#186=VERTEX_POINT('',#563);
#187=EDGE_CURVE('',#161,#161,#135,.T.);
#188=EDGE_CURVE('',#162,#162,#136,.T.);
#189=EDGE_CURVE('',#163,#163,#137,.T.);
#190=EDGE_CURVE('',#164,#164,#138,.T.);
#191=EDGE_CURVE('',#165,#165,#139,.T.);
#192=EDGE_CURVE('',#166,#166,#140,.T.);
#193=EDGE_CURVE('',#167,#167,#141,.T.);
#194=EDGE_CURVE('',#168,#168,#142,.T.);
#195=EDGE_CURVE('',#169,#169,#143,.T.);
#196=EDGE_CURVE('',#170,#170,#144,.T.);
#197=EDGE_CURVE('',#171,#171,#145,.T.);
#198=EDGE_CURVE('',#172,#172,#146,.T.);
#199=EDGE_CURVE('',#173,#173,#147,.T.);
#200=EDGE_CURVE('',#174,#174,#148,.T.);
#201=EDGE_CURVE('',#175,#175,#149,.T.);
#202=EDGE_CURVE('',#176,#176,#150,.T.);
#203=EDGE_CURVE('',#177,#177,#151,.T.);
#204=EDGE_CURVE('',#178,#178,#152,.T.);
#205=EDGE_CURVE('',#179,#179,#153,.T.);
#206=EDGE_CURVE('',#180,#180,#154,.T.);
#207=EDGE_CURVE('',#181,#181,#155,.T.);
#208=EDGE_CURVE('',#182,#182,#156,.T.);
#209=EDGE_CURVE('',#183,#183,#157,.T.);
#210=EDGE_CURVE('',#184,#184,#158,.T.);
#211=EDGE_CURVE('',#185,#185,#159,.T.);
#212=EDGE_CURVE('',#186,#186,#160,.T.);
#213=ORIENTED_EDGE('',*,*,#187,.F.);
#214=ORIENTED_EDGE('',*,*,#188,.F.);
#215=ORIENTED_EDGE('',*,*,#189,.T.);
#216=ORIENTED_EDGE('',*,*,#190,.T.);
#217=ORIENTED_EDGE('',*,*,#187,.T.);
#218=ORIENTED_EDGE('',*,*,#189,.F.);
#219=ORIENTED_EDGE('',*,*,#191,.F.);
#220=ORIENTED_EDGE('',*,*,#190,.F.);
#221=ORIENTED_EDGE('',*,*,#192,.F.);
#222=ORIENTED_EDGE('',*,*,#191,.T.);
#223=ORIENTED_EDGE('',*,*,#193,.F.);
#224=ORIENTED_EDGE('',*,*,#192,.T.);
#225=ORIENTED_EDGE('',*,*,#194,.F.);
#226=ORIENTED_EDGE('',*,*,#193,.T.);
#227=ORIENTED_EDGE('',*,*,#195,.F.);
#228=ORIENTED_EDGE('',*,*,#194,.T.);
#229=ORIENTED_EDGE('',*,*,#196,.F.);
#230=ORIENTED_EDGE('',*,*,#195,.T.);
#231=ORIENTED_EDGE('',*,*,#197,.F.);
#232=ORIENTED_EDGE('',*,*,#198,.F.);
#233=ORIENTED_EDGE('',*,*,#199,.F.);
#234=ORIENTED_EDGE('',*,*,#198,.T.);
#235=ORIENTED_EDGE('',*,*,#200,.F.);
#236=ORIENTED_EDGE('',*,*,#201,.F.);
#237=ORIENTED_EDGE('',*,*,#202,.F.);
#238=ORIENTED_EDGE('',*,*,#201,.T.);
#239=ORIENTED_EDGE('',*,*,#203,.F.);
#240=ORIENTED_EDGE('',*,*,#204,.F.);
#241=ORIENTED_EDGE('',*,*,#205,.F.);
#242=ORIENTED_EDGE('',*,*,#204,.T.);
#243=ORIENTED_EDGE('',*,*,#206,.F.);
#244=ORIENTED_EDGE('',*,*,#207,.F.);
#245=ORIENTED_EDGE('',*,*,#208,.F.);
#246=ORIENTED_EDGE('',*,*,#207,.T.);
#247=ORIENTED_EDGE('',*,*,#208,.T.);
#248=ORIENTED_EDGE('',*,*,#203,.T.);
#249=ORIENTED_EDGE('',*,*,#205,.T.);
#250=ORIENTED_EDGE('',*,*,#200,.T.);
#251=ORIENTED_EDGE('',*,*,#202,.T.);
#252=ORIENTED_EDGE('',*,*,#197,.T.);
#253=ORIENTED_EDGE('',*,*,#188,.T.);
#254=ORIENTED_EDGE('',*,*,#199,.T.);
#255=ORIENTED_EDGE('',*,*,#209,.F.);
#256=ORIENTED_EDGE('',*,*,#210,.F.);
#257=ORIENTED_EDGE('',*,*,#196,.T.);
#258=ORIENTED_EDGE('',*,*,#211,.T.);
#259=ORIENTED_EDGE('',*,*,#206,.T.);
#260=ORIENTED_EDGE('',*,*,#209,.T.);
#261=ORIENTED_EDGE('',*,*,#210,.T.);
#262=ORIENTED_EDGE('',*,*,#212,.F.);
#263=ORIENTED_EDGE('',*,*,#212,.T.);
#264=ORIENTED_EDGE('',*,*,#211,.F.);
#265=PLANE('',#329);
#266=PLANE('',#336);
#267=PLANE('',#340);
#268=PLANE('',#348);
#269=PLANE('',#353);
#270=PLANE('',#358);
#271=PLANE('',#363);
#272=PLANE('',#375);
#273=PLANE('',#378);
#274=STYLED_ITEM('',(#587),#301);
#275=STYLED_ITEM('',(#587),#302);
#276=STYLED_ITEM('',(#587),#303);
#277=STYLED_ITEM('',(#587),#304);
#278=STYLED_ITEM('',(#587),#305);
#279=STYLED_ITEM('',(#587),#306);
#280=STYLED_ITEM('',(#587),#307);
#281=STYLED_ITEM('',(#587),#308);
#282=STYLED_ITEM('',(#587),#309);
#283=STYLED_ITEM('',(#587),#310);
#284=STYLED_ITEM('',(#587),#311);
#285=STYLED_ITEM('',(#587),#312);
#286=STYLED_ITEM('',(#587),#313);
#287=STYLED_ITEM('',(#587),#314);
#288=STYLED_ITEM('',(#587),#315);
#289=STYLED_ITEM('',(#587),#316);
#290=STYLED_ITEM('',(#587),#317);
#291=STYLED_ITEM('',(#587),#318);
#292=STYLED_ITEM('',(#587),#319);
#293=STYLED_ITEM('',(#587),#320);
#294=STYLED_ITEM('',(#587),#321);
#295=STYLED_ITEM('',(#587),#322);
#296=STYLED_ITEM('',(#587),#323);
#297=STYLED_ITEM('',(#587),#324);
#298=STYLED_ITEM('',(#587),#325);
#299=STYLED_ITEM('',(#587),#326);
#300=STYLED_ITEM('',(#587),#13);
#301=ADVANCED_FACE('',(#57,#31),#265,.T.);
#302=ADVANCED_FACE('',(#58,#32),#30,.F.);
#303=ADVANCED_FACE('',(#59,#33),#21,.T.);
#304=ADVANCED_FACE('',(#60,#34),#266,.T.);
#305=ADVANCED_FACE('',(#61,#35),#22,.T.);
#306=ADVANCED_FACE('',(#62,#36),#267,.T.);
#307=ADVANCED_FACE('',(#63,#37),#14,.T.);
#308=ADVANCED_FACE('',(#64,#38),#15,.T.);
#309=ADVANCED_FACE('',(#65,#39),#23,.F.);
#310=ADVANCED_FACE('',(#66,#40),#268,.F.);
#311=ADVANCED_FACE('',(#67,#41),#16,.T.);
#312=ADVANCED_FACE('',(#68,#42),#269,.F.);
#313=ADVANCED_FACE('',(#69,#43),#17,.T.);
#314=ADVANCED_FACE('',(#70,#44),#270,.F.);
#315=ADVANCED_FACE('',(#71,#45),#18,.T.);
#316=ADVANCED_FACE('',(#72,#46),#271,.F.);
#317=ADVANCED_FACE('',(#73,#47),#19,.T.);
#318=ADVANCED_FACE('',(#74,#48),#24,.T.);
#319=ADVANCED_FACE('',(#75,#49),#25,.T.);
#320=ADVANCED_FACE('',(#76,#50),#26,.T.);
#321=ADVANCED_FACE('',(#77,#51),#27,.T.);
#322=ADVANCED_FACE('',(#78,#52),#20,.T.);
#323=ADVANCED_FACE('',(#79,#53),#272,.T.);
#324=ADVANCED_FACE('',(#80,#54),#28,.T.);
#325=ADVANCED_FACE('',(#81,#55),#273,.T.);
#326=ADVANCED_FACE('',(#82,#56),#29,.F.);
#327=CLOSED_SHELL('',(#301,#302,#303,#304,#305,#306,#307,#308,#309,#310,
#311,#312,#313,#314,#315,#316,#317,#318,#319,#320,#321,#322,#323,#324,#325,
#326));
#328=AXIS2_PLACEMENT_3D('placement',#487,#381,#382);
#329=AXIS2_PLACEMENT_3D('',#488,#383,#384);
#330=AXIS2_PLACEMENT_3D('',#490,#385,#386);
#331=AXIS2_PLACEMENT_3D('',#492,#387,#388);
#332=AXIS2_PLACEMENT_3D('',#493,#389,#390);
#333=AXIS2_PLACEMENT_3D('',#495,#391,#392);
#334=AXIS2_PLACEMENT_3D('',#497,#393,#394);
#335=AXIS2_PLACEMENT_3D('',#498,#395,#396);
#336=AXIS2_PLACEMENT_3D('',#499,#397,#398);
#337=AXIS2_PLACEMENT_3D('',#501,#399,#400);
#338=AXIS2_PLACEMENT_3D('',#502,#401,#402);
#339=AXIS2_PLACEMENT_3D('',#504,#403,#404);
#340=AXIS2_PLACEMENT_3D('',#505,#405,#406);
#341=AXIS2_PLACEMENT_3D('',#507,#407,#408);
#342=AXIS2_PLACEMENT_3D('',#508,#409,#410);
#343=AXIS2_PLACEMENT_3D('',#510,#411,#412);
#344=AXIS2_PLACEMENT_3D('',#511,#413,#414);
#345=AXIS2_PLACEMENT_3D('',#513,#415,#416);
#346=AXIS2_PLACEMENT_3D('',#514,#417,#418);
#347=AXIS2_PLACEMENT_3D('',#516,#419,#420);
#348=AXIS2_PLACEMENT_3D('',#517,#421,#422);
#349=AXIS2_PLACEMENT_3D('',#519,#423,#424);
#350=AXIS2_PLACEMENT_3D('',#521,#425,#426);
#351=AXIS2_PLACEMENT_3D('',#522,#427,#428);
#352=AXIS2_PLACEMENT_3D('',#524,#429,#430);
#353=AXIS2_PLACEMENT_3D('',#525,#431,#432);
#354=AXIS2_PLACEMENT_3D('',#527,#433,#434);
#355=AXIS2_PLACEMENT_3D('',#529,#435,#436);
#356=AXIS2_PLACEMENT_3D('',#530,#437,#438);
#357=AXIS2_PLACEMENT_3D('',#532,#439,#440);
#358=AXIS2_PLACEMENT_3D('',#533,#441,#442);
#359=AXIS2_PLACEMENT_3D('',#535,#443,#444);
#360=AXIS2_PLACEMENT_3D('',#537,#445,#446);
#361=AXIS2_PLACEMENT_3D('',#538,#447,#448);
#362=AXIS2_PLACEMENT_3D('',#540,#449,#450);
#363=AXIS2_PLACEMENT_3D('',#541,#451,#452);
#364=AXIS2_PLACEMENT_3D('',#543,#453,#454);
#365=AXIS2_PLACEMENT_3D('',#545,#455,#456);
#366=AXIS2_PLACEMENT_3D('',#546,#457,#458);
#367=AXIS2_PLACEMENT_3D('',#548,#459,#460);
#368=AXIS2_PLACEMENT_3D('',#549,#461,#462);
#369=AXIS2_PLACEMENT_3D('',#550,#463,#464);
#370=AXIS2_PLACEMENT_3D('',#551,#465,#466);
#371=AXIS2_PLACEMENT_3D('',#552,#467,#468);
#372=AXIS2_PLACEMENT_3D('',#553,#469,#470);
#373=AXIS2_PLACEMENT_3D('',#555,#471,#472);
#374=AXIS2_PLACEMENT_3D('',#557,#473,#474);
#375=AXIS2_PLACEMENT_3D('',#558,#475,#476);
#376=AXIS2_PLACEMENT_3D('',#560,#477,#478);
#377=AXIS2_PLACEMENT_3D('',#561,#479,#480);
#378=AXIS2_PLACEMENT_3D('',#562,#481,#482);
#379=AXIS2_PLACEMENT_3D('',#564,#483,#484);
#380=AXIS2_PLACEMENT_3D('',#565,#485,#486);
#381=DIRECTION('axis',(0.,0.,1.));
#382=DIRECTION('refdir',(1.,0.,0.));
#383=DIRECTION('center_axis',(1.,0.,0.));
#384=DIRECTION('ref_axis',(0.,0.,-1.));
#385=DIRECTION('center_axis',(-1.,0.,0.));
#386=DIRECTION('ref_axis',(0.,0.,1.));
#387=DIRECTION('center_axis',(1.,0.,0.));
#388=DIRECTION('ref_axis',(0.,0.,-1.));
#389=DIRECTION('center_axis',(-1.,0.,0.));
#390=DIRECTION('ref_axis',(0.,0.,1.));
#391=DIRECTION('center_axis',(-1.,0.,0.));
#392=DIRECTION('ref_axis',(0.,-1.,-1.83690953073357E-16));
#393=DIRECTION('center_axis',(1.,0.,0.));
#394=DIRECTION('ref_axis',(0.,-1.,-1.83690953073357E-16));
#395=DIRECTION('center_axis',(-1.,0.,0.));
#396=DIRECTION('ref_axis',(0.,1.,0.));
#397=DIRECTION('center_axis',(1.,0.,0.));
#398=DIRECTION('ref_axis',(0.,0.,-1.));
#399=DIRECTION('center_axis',(-1.,0.,0.));
#400=DIRECTION('ref_axis',(0.,0.,1.));
#401=DIRECTION('center_axis',(-1.,0.,0.));
#402=DIRECTION('ref_axis',(0.,1.,0.));
#403=DIRECTION('center_axis',(-1.,0.,0.));
#404=DIRECTION('ref_axis',(0.,0.,1.));
#405=DIRECTION('center_axis',(1.,0.,0.));
#406=DIRECTION('ref_axis',(0.,0.,-1.));
#407=DIRECTION('center_axis',(-1.,0.,0.));
#408=DIRECTION('ref_axis',(0.,0.,1.));
#409=DIRECTION('center_axis',(1.,0.,0.));
#410=DIRECTION('ref_axis',(0.,1.,0.));
#411=DIRECTION('center_axis',(-1.,0.,0.));
#412=DIRECTION('ref_axis',(0.,0.,1.));
#413=DIRECTION('center_axis',(1.,0.,0.));
#414=DIRECTION('ref_axis',(0.,1.,0.));
#415=DIRECTION('center_axis',(-1.,0.,0.));
#416=DIRECTION('ref_axis',(0.,0.,1.));
#417=DIRECTION('center_axis',(-1.,0.,0.));
#418=DIRECTION('ref_axis',(0.,1.,0.));
#419=DIRECTION('center_axis',(-1.,0.,0.));
#420=DIRECTION('ref_axis',(0.,1.,0.));
#421=DIRECTION('center_axis',(1.,0.,0.));
#422=DIRECTION('ref_axis',(0.,0.,-1.));
#423=DIRECTION('center_axis',(1.,0.,0.));
#424=DIRECTION('ref_axis',(0.,1.,0.));
#425=DIRECTION('center_axis',(-1.,0.,0.));
#426=DIRECTION('ref_axis',(0.,0.,1.));
#427=DIRECTION('center_axis',(-1.,0.,0.));
#428=DIRECTION('ref_axis',(0.,1.,0.));
#429=DIRECTION('center_axis',(-1.,0.,0.));
#430=DIRECTION('ref_axis',(0.,1.,0.));
#431=DIRECTION('center_axis',(1.,0.,0.));
#432=DIRECTION('ref_axis',(0.,0.,-1.));
#433=DIRECTION('center_axis',(1.,0.,0.));
#434=DIRECTION('ref_axis',(0.,1.,0.));
#435=DIRECTION('center_axis',(-1.,0.,0.));
#436=DIRECTION('ref_axis',(0.,0.,1.));
#437=DIRECTION('center_axis',(-1.,0.,0.));
#438=DIRECTION('ref_axis',(0.,1.,0.));
#439=DIRECTION('center_axis',(-1.,0.,0.));
#440=DIRECTION('ref_axis',(0.,1.,0.));
#441=DIRECTION('center_axis',(1.,0.,0.));
#442=DIRECTION('ref_axis',(0.,0.,-1.));
#443=DIRECTION('center_axis',(1.,0.,0.));
#444=DIRECTION('ref_axis',(0.,1.,0.));
#445=DIRECTION('center_axis',(-1.,0.,0.));
#446=DIRECTION('ref_axis',(0.,0.,1.));
#447=DIRECTION('center_axis',(-1.,0.,0.));
#448=DIRECTION('ref_axis',(0.,1.,0.));
#449=DIRECTION('center_axis',(-1.,0.,0.));
#450=DIRECTION('ref_axis',(0.,1.,0.));
#451=DIRECTION('center_axis',(1.,0.,0.));
#452=DIRECTION('ref_axis',(0.,0.,-1.));
#453=DIRECTION('center_axis',(1.,0.,0.));
#454=DIRECTION('ref_axis',(0.,1.,0.));
#455=DIRECTION('center_axis',(-1.,0.,0.));
#456=DIRECTION('ref_axis',(0.,0.,1.));
#457=DIRECTION('center_axis',(-1.,0.,0.));
#458=DIRECTION('ref_axis',(0.,1.,0.));
#459=DIRECTION('center_axis',(-1.,0.,0.));
#460=DIRECTION('ref_axis',(0.,1.,0.));
#461=DIRECTION('center_axis',(1.,0.,0.));
#462=DIRECTION('ref_axis',(0.,1.,0.));
#463=DIRECTION('center_axis',(1.,0.,0.));
#464=DIRECTION('ref_axis',(0.,1.,0.));
#465=DIRECTION('center_axis',(1.,0.,0.));
#466=DIRECTION('ref_axis',(0.,1.,0.));
#467=DIRECTION('center_axis',(1.,0.,0.));
#468=DIRECTION('ref_axis',(0.,1.,0.));
#469=DIRECTION('center_axis',(-1.,0.,0.));
#470=DIRECTION('ref_axis',(0.,1.,0.));
#471=DIRECTION('center_axis',(-1.,0.,0.));
#472=DIRECTION('ref_axis',(0.,1.,0.));
#473=DIRECTION('center_axis',(1.,0.,0.));
#474=DIRECTION('ref_axis',(0.,1.,0.));
#475=DIRECTION('center_axis',(-1.,0.,0.));
#476=DIRECTION('ref_axis',(0.,0.,1.));
#477=DIRECTION('center_axis',(1.,0.,0.));
#478=DIRECTION('ref_axis',(0.,0.,-1.));
#479=DIRECTION('center_axis',(1.,0.,0.));
#480=DIRECTION('ref_axis',(0.,1.,0.));
#481=DIRECTION('center_axis',(1.,0.,0.));
#482=DIRECTION('ref_axis',(0.,0.,-1.));
#483=DIRECTION('center_axis',(1.,0.,0.));
#484=DIRECTION('ref_axis',(0.,0.,-1.));
#485=DIRECTION('center_axis',(1.,0.,0.));
#486=DIRECTION('ref_axis',(0.,1.,0.));
#487=CARTESIAN_POINT('',(0.,0.,0.));
#488=CARTESIAN_POINT('Origin',(-85.,26.5,0.));
#489=CARTESIAN_POINT('',(-85.,26.5,0.));
#490=CARTESIAN_POINT('Origin',(-85.,0.,0.));
#491=CARTESIAN_POINT('',(-85.,26.25,0.));
#492=CARTESIAN_POINT('Origin',(-85.,0.,0.));
#493=CARTESIAN_POINT('Origin',(-97.4,0.,0.));
#494=CARTESIAN_POINT('',(-97.4,26.5,1.62260341881465E-15));
#495=CARTESIAN_POINT('Origin',(-97.4,0.,0.));
#496=CARTESIAN_POINT('',(-99.,28.1,8.60285963560221E-15));
#497=CARTESIAN_POINT('Origin',(-99.,0.,0.));
#498=CARTESIAN_POINT('Origin',(-92.,0.,0.));
#499=CARTESIAN_POINT('Origin',(-99.,30.5,0.));
#500=CARTESIAN_POINT('',(-99.,30.5,0.));
#501=CARTESIAN_POINT('Origin',(-99.,0.,0.));
#502=CARTESIAN_POINT('Origin',(-100.5,0.,0.));
#503=CARTESIAN_POINT('',(-102.,30.5,0.));
#504=CARTESIAN_POINT('Origin',(-102.,0.,0.));
#505=CARTESIAN_POINT('Origin',(-102.,34.25,0.));
#506=CARTESIAN_POINT('',(-102.,34.25,0.));
#507=CARTESIAN_POINT('Origin',(-102.,0.,0.));
#508=CARTESIAN_POINT('Origin',(-107.217680493498,0.,0.));
#509=CARTESIAN_POINT('',(-112.435360986997,31.453853450807,0.));
#510=CARTESIAN_POINT('Origin',(-112.435360986997,0.,0.));
#511=CARTESIAN_POINT('Origin',(-112.717680493498,0.,0.));
#512=CARTESIAN_POINT('',(-113.,25.,0.));
#513=CARTESIAN_POINT('Origin',(-113.,0.,0.));
#514=CARTESIAN_POINT('Origin',(-99.,0.,0.));
#515=CARTESIAN_POINT('',(-85.,25.,0.));
#516=CARTESIAN_POINT('Origin',(-85.,0.,0.));
#517=CARTESIAN_POINT('Origin',(-40.,28.2,0.));
#518=CARTESIAN_POINT('',(-40.,-26.25,-3.2146978477618E-15));
#519=CARTESIAN_POINT('Origin',(-40.,0.,0.));
#520=CARTESIAN_POINT('',(-40.,25.2,0.));
#521=CARTESIAN_POINT('Origin',(-40.,0.,0.));
#522=CARTESIAN_POINT('Origin',(-45.,0.,0.));
#523=CARTESIAN_POINT('',(-49.9900826769338,-26.25,3.2146978477618E-15));
#524=CARTESIAN_POINT('Origin',(-49.9900826769338,0.,0.));
#525=CARTESIAN_POINT('Origin',(-30.,28.2,0.));
#526=CARTESIAN_POINT('',(-30.,-26.25,-3.2146978477618E-15));
#527=CARTESIAN_POINT('Origin',(-30.,0.,0.));
#528=CARTESIAN_POINT('',(-30.,25.2,0.));
#529=CARTESIAN_POINT('Origin',(-30.,0.,0.));
#530=CARTESIAN_POINT('Origin',(-35.,0.,0.));
#531=CARTESIAN_POINT('',(-39.9900826769338,-26.25,3.2146978477618E-15));
#532=CARTESIAN_POINT('Origin',(-39.9900826769338,0.,0.));
#533=CARTESIAN_POINT('Origin',(-20.,28.2,0.));
#534=CARTESIAN_POINT('',(-20.,-26.25,-3.2146978477618E-15));
#535=CARTESIAN_POINT('Origin',(-20.,0.,0.));
#536=CARTESIAN_POINT('',(-20.,25.2,0.));
#537=CARTESIAN_POINT('Origin',(-20.,0.,0.));
#538=CARTESIAN_POINT('Origin',(-25.,0.,0.));
#539=CARTESIAN_POINT('',(-29.9900826769338,-26.25,3.2146978477618E-15));
#540=CARTESIAN_POINT('Origin',(-29.9900826769338,0.,0.));
#541=CARTESIAN_POINT('Origin',(-10.,28.2,0.));
#542=CARTESIAN_POINT('',(-10.,-26.25,-3.2146978477618E-15));
#543=CARTESIAN_POINT('Origin',(-10.,0.,0.));
#544=CARTESIAN_POINT('',(-10.,25.2,0.));
#545=CARTESIAN_POINT('Origin',(-10.,0.,0.));
#546=CARTESIAN_POINT('Origin',(-15.,0.,0.));
#547=CARTESIAN_POINT('',(-19.9900826769338,-26.25,3.2146978477618E-15));
#548=CARTESIAN_POINT('Origin',(-19.9900826769338,0.,0.));
#549=CARTESIAN_POINT('Origin',(-42.5,0.,0.));
#550=CARTESIAN_POINT('Origin',(-42.5,0.,0.));
#551=CARTESIAN_POINT('Origin',(-42.5,0.,0.));
#552=CARTESIAN_POINT('Origin',(-42.5,0.,0.));
#553=CARTESIAN_POINT('Origin',(-5.,0.,0.));
#554=CARTESIAN_POINT('',(-9.99008267693377,-26.25,3.2146978477618E-15));
#555=CARTESIAN_POINT('Origin',(-9.99008267693377,0.,0.));
#556=CARTESIAN_POINT('',(0.,25.2,0.));
#557=CARTESIAN_POINT('Origin',(-4.44089209850063E-15,0.,0.));
#558=CARTESIAN_POINT('Origin',(-85.,26.25,0.));
#559=CARTESIAN_POINT('',(-85.,23.5,0.));
#560=CARTESIAN_POINT('Origin',(-85.,0.,0.));
#561=CARTESIAN_POINT('Origin',(-42.5,0.,0.));
#562=CARTESIAN_POINT('Origin',(-4.31687996699442E-15,23.5,0.));
#563=CARTESIAN_POINT('',(-4.31687996699442E-15,23.5,0.));
#564=CARTESIAN_POINT('Origin',(0.,0.,0.));
#565=CARTESIAN_POINT('Origin',(-42.5,0.,0.));
#566=UNCERTAINTY_MEASURE_WITH_UNIT(LENGTH_MEASURE(0.01),#570,
'DISTANCE_ACCURACY_VALUE',
'Maximum model space distance between geometric entities at asserted c
onnectivities');
#567=UNCERTAINTY_MEASURE_WITH_UNIT(LENGTH_MEASURE(1.E-6),#570,
'DISTANCE_ACCURACY_VALUE',
'Maximum model space distance between geometric entities at asserted c
onnectivities');
#568=(
GEOMETRIC_REPRESENTATION_CONTEXT(3)
GLOBAL_UNCERTAINTY_ASSIGNED_CONTEXT((#566))
GLOBAL_UNIT_ASSIGNED_CONTEXT((#570,#573,#571))
REPRESENTATION_CONTEXT('','3D')
);
#569=(
GEOMETRIC_REPRESENTATION_CONTEXT(3)
GLOBAL_UNCERTAINTY_ASSIGNED_CONTEXT((#567))
GLOBAL_UNIT_ASSIGNED_CONTEXT((#570,#573,#571))
REPRESENTATION_CONTEXT('','3D')
);
#570=(
LENGTH_UNIT()
NAMED_UNIT(*)
SI_UNIT(.MILLI.,.METRE.)
);
#571=(
NAMED_UNIT(*)
SI_UNIT($,.STERADIAN.)
SOLID_ANGLE_UNIT()
);
#572=DIMENSIONAL_EXPONENTS(0.,0.,0.,0.,0.,0.,0.);
#573=(
CONVERSION_BASED_UNIT('degree',#575)
NAMED_UNIT(#572)
PLANE_ANGLE_UNIT()
);
#574=(
NAMED_UNIT(*)
PLANE_ANGLE_UNIT()
SI_UNIT($,.RADIAN.)
);
#575=PLANE_ANGLE_MEASURE_WITH_UNIT(PLANE_ANGLE_MEASURE(0.01745329252),#574);
#576=SHAPE_DEFINITION_REPRESENTATION(#577,#578);
#577=PRODUCT_DEFINITION_SHAPE('',$,#580);
#578=SHAPE_REPRESENTATION('',(#328),#568);
#579=DESIGN_CONTEXT('part definition',#584,'design');
#580=PRODUCT_DEFINITION('26040050000','26040050000',#581,#579);
#581=PRODUCT_DEFINITION_FORMATION('',$,#586);
#582=PRODUCT_RELATED_PRODUCT_CATEGORY('26040050000','26040050000',(#586));
#583=APPLICATION_PROTOCOL_DEFINITION('international standard',
'ap203_configuration_controlled_3d_design_of_mechanical_parts_and_asse
mblies_mim_lf',2004,#584);
#584=APPLICATION_CONTEXT(
'Configuration Controlled 3D Design of Mechanical Parts and Assemblies');
#585=MECHANICAL_CONTEXT('part definition',#584,'mechanical');
#586=PRODUCT('26040050000','26040050000',$,(#585));
#587=PRESENTATION_STYLE_ASSIGNMENT((#588));
#588=SURFACE_STYLE_USAGE(.BOTH.,#589);
#589=SURFACE_SIDE_STYLE($,(#590));
#590=SURFACE_STYLE_FILL_AREA(#591);
#591=FILL_AREA_STYLE($,(#592));
#592=FILL_AREA_STYLE_COLOUR($,#593);
#593=COLOUR_RGB('',0.745098039215686,0.737254901960784,0.729411764705882);
ENDSEC;
END-ISO-10303-21;
