ISO-10303-21;
HEADER;
/* Generated by software containing ST-Developer
 * from STEP Tools, Inc. (www.steptools.com) 
 */

FILE_DESCRIPTION(
/* description */ (''),
/* implementation_level */ '2;1');

FILE_NAME(
/* name */ 
'C:\\Vault_Workspace\\DATA\\Katalog Bupospol\\2 Potrubn\X\ED d\X\EDly\\
2.6 Hadicov\X\E9 n\X\E1stavce\\26040\\26040\\26040150000.stp',
/* time_stamp */ '2016-03-08T11:46:44+01:00',
/* author */ ('Struska'),
/* organization */ ('BUPOSPOL'),
/* preprocessor_version */ 'ST-DEVELOPER v15.6',
/* originating_system */ 'Autodesk Inventor 2015',
/* authorisation */ '');

FILE_SCHEMA (('CONFIG_CONTROL_DESIGN'));
ENDSEC;

DATA;
#10=MECHANICAL_DESIGN_GEOMETRIC_PRESENTATION_REPRESENTATION('',(#287,#288,
#284,#283,#275,#281,#264,#268,#269,#271,#274,#277,#270,#265,#276,#280,#285,
#272,#273,#282,#279,#267,#286,#278,#266,#289),#548);
#11=SHAPE_REPRESENTATION_RELATIONSHIP('SRR','None',#557,#12);
#12=ADVANCED_BREP_SHAPE_REPRESENTATION($,(#13),#547);
#13=MANIFOLD_SOLID_BREP('T\X2\011B\X0\leso1',#315);
#14=CONICAL_SURFACE('',#330,85.6866017497157,15.);
#15=CONICAL_SURFACE('',#332,79.1866017497157,85.);
#16=CONICAL_SURFACE('',#342,76.1882817644926,6.00000000000001);
#17=CONICAL_SURFACE('',#346,76.1882817644926,6.00000000000001);
#18=CONICAL_SURFACE('',#350,76.1882817644926,6.00000000000001);
#19=CONICAL_SURFACE('',#354,76.1882817644926,6.00000000000001);
#20=CONICAL_SURFACE('',#358,76.1882817644926,6.00000000000001);
#21=CONICAL_SURFACE('',#359,76.1882817644926,6.00000000000001);
#22=CYLINDRICAL_SURFACE('',#323,77.5);
#23=CYLINDRICAL_SURFACE('',#326,81.5);
#24=CYLINDRICAL_SURFACE('',#334,75.);
#25=CYLINDRICAL_SURFACE('',#363,77.);
#26=CYLINDRICAL_SURFACE('',#366,70.);
#27=TOROIDAL_SURFACE('',#320,80.,2.5);
#28=FACE_BOUND('',#79,.T.);
#29=FACE_BOUND('',#81,.T.);
#30=FACE_BOUND('',#83,.T.);
#31=FACE_BOUND('',#85,.T.);
#32=FACE_BOUND('',#87,.T.);
#33=FACE_BOUND('',#89,.T.);
#34=FACE_BOUND('',#91,.T.);
#35=FACE_BOUND('',#93,.T.);
#36=FACE_BOUND('',#95,.T.);
#37=FACE_BOUND('',#97,.T.);
#38=FACE_BOUND('',#99,.T.);
#39=FACE_BOUND('',#101,.T.);
#40=FACE_BOUND('',#103,.T.);
#41=FACE_BOUND('',#105,.T.);
#42=FACE_BOUND('',#107,.T.);
#43=FACE_BOUND('',#109,.T.);
#44=FACE_BOUND('',#111,.T.);
#45=FACE_BOUND('',#113,.T.);
#46=FACE_BOUND('',#115,.T.);
#47=FACE_BOUND('',#117,.T.);
#48=FACE_BOUND('',#119,.T.);
#49=FACE_BOUND('',#121,.T.);
#50=FACE_BOUND('',#123,.T.);
#51=FACE_BOUND('',#125,.T.);
#52=FACE_BOUND('',#127,.T.);
#53=FACE_OUTER_BOUND('',#78,.T.);
#54=FACE_OUTER_BOUND('',#80,.T.);
#55=FACE_OUTER_BOUND('',#82,.T.);
#56=FACE_OUTER_BOUND('',#84,.T.);
#57=FACE_OUTER_BOUND('',#86,.T.);
#58=FACE_OUTER_BOUND('',#88,.T.);
#59=FACE_OUTER_BOUND('',#90,.T.);
#60=FACE_OUTER_BOUND('',#92,.T.);
#61=FACE_OUTER_BOUND('',#94,.T.);
#62=FACE_OUTER_BOUND('',#96,.T.);
#63=FACE_OUTER_BOUND('',#98,.T.);
#64=FACE_OUTER_BOUND('',#100,.T.);
#65=FACE_OUTER_BOUND('',#102,.T.);
#66=FACE_OUTER_BOUND('',#104,.T.);
#67=FACE_OUTER_BOUND('',#106,.T.);
#68=FACE_OUTER_BOUND('',#108,.T.);
#69=FACE_OUTER_BOUND('',#110,.T.);
#70=FACE_OUTER_BOUND('',#112,.T.);
#71=FACE_OUTER_BOUND('',#114,.T.);
#72=FACE_OUTER_BOUND('',#116,.T.);
#73=FACE_OUTER_BOUND('',#118,.T.);
#74=FACE_OUTER_BOUND('',#120,.T.);
#75=FACE_OUTER_BOUND('',#122,.T.);
#76=FACE_OUTER_BOUND('',#124,.T.);
#77=FACE_OUTER_BOUND('',#126,.T.);
#78=EDGE_LOOP('',(#203));
#79=EDGE_LOOP('',(#204));
#80=EDGE_LOOP('',(#205));
#81=EDGE_LOOP('',(#206));
#82=EDGE_LOOP('',(#207));
#83=EDGE_LOOP('',(#208));
#84=EDGE_LOOP('',(#209));
#85=EDGE_LOOP('',(#210));
#86=EDGE_LOOP('',(#211));
#87=EDGE_LOOP('',(#212));
#88=EDGE_LOOP('',(#213));
#89=EDGE_LOOP('',(#214));
#90=EDGE_LOOP('',(#215));
#91=EDGE_LOOP('',(#216));
#92=EDGE_LOOP('',(#217));
#93=EDGE_LOOP('',(#218));
#94=EDGE_LOOP('',(#219));
#95=EDGE_LOOP('',(#220));
#96=EDGE_LOOP('',(#221));
#97=EDGE_LOOP('',(#222));
#98=EDGE_LOOP('',(#223));
#99=EDGE_LOOP('',(#224));
#100=EDGE_LOOP('',(#225));
#101=EDGE_LOOP('',(#226));
#102=EDGE_LOOP('',(#227));
#103=EDGE_LOOP('',(#228));
#104=EDGE_LOOP('',(#229));
#105=EDGE_LOOP('',(#230));
#106=EDGE_LOOP('',(#231));
#107=EDGE_LOOP('',(#232));
#108=EDGE_LOOP('',(#233));
#109=EDGE_LOOP('',(#234));
#110=EDGE_LOOP('',(#235));
#111=EDGE_LOOP('',(#236));
#112=EDGE_LOOP('',(#237));
#113=EDGE_LOOP('',(#238));
#114=EDGE_LOOP('',(#239));
#115=EDGE_LOOP('',(#240));
#116=EDGE_LOOP('',(#241));
#117=EDGE_LOOP('',(#242));
#118=EDGE_LOOP('',(#243));
#119=EDGE_LOOP('',(#244));
#120=EDGE_LOOP('',(#245));
#121=EDGE_LOOP('',(#246));
#122=EDGE_LOOP('',(#247));
#123=EDGE_LOOP('',(#248));
#124=EDGE_LOOP('',(#249));
#125=EDGE_LOOP('',(#250));
#126=EDGE_LOOP('',(#251));
#127=EDGE_LOOP('',(#252));
#128=CIRCLE('',#318,77.5);
#129=CIRCLE('',#319,77.);
#130=CIRCLE('',#321,77.5);
#131=CIRCLE('',#322,80.);
#132=CIRCLE('',#325,81.5);
#133=CIRCLE('',#327,81.5);
#134=CIRCLE('',#329,88.);
#135=CIRCLE('',#331,83.3732034994313);
#136=CIRCLE('',#333,75.);
#137=CIRCLE('',#335,75.);
#138=CIRCLE('',#337,76.9765635289852);
#139=CIRCLE('',#338,75.4);
#140=CIRCLE('',#340,77.);
#141=CIRCLE('',#341,76.9765635289852);
#142=CIRCLE('',#344,76.9765635289852);
#143=CIRCLE('',#345,75.4);
#144=CIRCLE('',#348,76.9765635289852);
#145=CIRCLE('',#349,75.4);
#146=CIRCLE('',#352,76.9765635289852);
#147=CIRCLE('',#353,75.4);
#148=CIRCLE('',#356,76.9765635289852);
#149=CIRCLE('',#357,75.4);
#150=CIRCLE('',#360,75.4);
#151=CIRCLE('',#362,70.);
#152=CIRCLE('',#365,70.);
#153=VERTEX_POINT('',#471);
#154=VERTEX_POINT('',#473);
#155=VERTEX_POINT('',#476);
#156=VERTEX_POINT('',#478);
#157=VERTEX_POINT('',#482);
#158=VERTEX_POINT('',#485);
#159=VERTEX_POINT('',#488);
#160=VERTEX_POINT('',#491);
#161=VERTEX_POINT('',#494);
#162=VERTEX_POINT('',#497);
#163=VERTEX_POINT('',#500);
#164=VERTEX_POINT('',#502);
#165=VERTEX_POINT('',#505);
#166=VERTEX_POINT('',#507);
#167=VERTEX_POINT('',#511);
#168=VERTEX_POINT('',#513);
#169=VERTEX_POINT('',#517);
#170=VERTEX_POINT('',#519);
#171=VERTEX_POINT('',#523);
#172=VERTEX_POINT('',#525);
#173=VERTEX_POINT('',#529);
#174=VERTEX_POINT('',#531);
#175=VERTEX_POINT('',#535);
#176=VERTEX_POINT('',#538);
#177=VERTEX_POINT('',#542);
#178=EDGE_CURVE('',#153,#153,#128,.T.);
#179=EDGE_CURVE('',#154,#154,#129,.T.);
#180=EDGE_CURVE('',#155,#155,#130,.T.);
#181=EDGE_CURVE('',#156,#156,#131,.T.);
#182=EDGE_CURVE('',#157,#157,#132,.T.);
#183=EDGE_CURVE('',#158,#158,#133,.T.);
#184=EDGE_CURVE('',#159,#159,#134,.T.);
#185=EDGE_CURVE('',#160,#160,#135,.T.);
#186=EDGE_CURVE('',#161,#161,#136,.T.);
#187=EDGE_CURVE('',#162,#162,#137,.T.);
#188=EDGE_CURVE('',#163,#163,#138,.T.);
#189=EDGE_CURVE('',#164,#164,#139,.T.);
#190=EDGE_CURVE('',#165,#165,#140,.T.);
#191=EDGE_CURVE('',#166,#166,#141,.T.);
#192=EDGE_CURVE('',#167,#167,#142,.T.);
#193=EDGE_CURVE('',#168,#168,#143,.T.);
#194=EDGE_CURVE('',#169,#169,#144,.T.);
#195=EDGE_CURVE('',#170,#170,#145,.T.);
#196=EDGE_CURVE('',#171,#171,#146,.T.);
#197=EDGE_CURVE('',#172,#172,#147,.T.);
#198=EDGE_CURVE('',#173,#173,#148,.T.);
#199=EDGE_CURVE('',#174,#174,#149,.T.);
#200=EDGE_CURVE('',#175,#175,#150,.T.);
#201=EDGE_CURVE('',#176,#176,#151,.T.);
#202=EDGE_CURVE('',#177,#177,#152,.T.);
#203=ORIENTED_EDGE('',*,*,#178,.F.);
#204=ORIENTED_EDGE('',*,*,#179,.F.);
#205=ORIENTED_EDGE('',*,*,#180,.T.);
#206=ORIENTED_EDGE('',*,*,#181,.T.);
#207=ORIENTED_EDGE('',*,*,#178,.T.);
#208=ORIENTED_EDGE('',*,*,#180,.F.);
#209=ORIENTED_EDGE('',*,*,#182,.F.);
#210=ORIENTED_EDGE('',*,*,#181,.F.);
#211=ORIENTED_EDGE('',*,*,#183,.F.);
#212=ORIENTED_EDGE('',*,*,#182,.T.);
#213=ORIENTED_EDGE('',*,*,#184,.F.);
#214=ORIENTED_EDGE('',*,*,#183,.T.);
#215=ORIENTED_EDGE('',*,*,#185,.F.);
#216=ORIENTED_EDGE('',*,*,#184,.T.);
#217=ORIENTED_EDGE('',*,*,#186,.F.);
#218=ORIENTED_EDGE('',*,*,#185,.T.);
#219=ORIENTED_EDGE('',*,*,#187,.F.);
#220=ORIENTED_EDGE('',*,*,#186,.T.);
#221=ORIENTED_EDGE('',*,*,#188,.T.);
#222=ORIENTED_EDGE('',*,*,#189,.F.);
#223=ORIENTED_EDGE('',*,*,#190,.F.);
#224=ORIENTED_EDGE('',*,*,#191,.T.);
#225=ORIENTED_EDGE('',*,*,#189,.T.);
#226=ORIENTED_EDGE('',*,*,#191,.F.);
#227=ORIENTED_EDGE('',*,*,#192,.T.);
#228=ORIENTED_EDGE('',*,*,#193,.F.);
#229=ORIENTED_EDGE('',*,*,#193,.T.);
#230=ORIENTED_EDGE('',*,*,#188,.F.);
#231=ORIENTED_EDGE('',*,*,#194,.T.);
#232=ORIENTED_EDGE('',*,*,#195,.F.);
#233=ORIENTED_EDGE('',*,*,#195,.T.);
#234=ORIENTED_EDGE('',*,*,#192,.F.);
#235=ORIENTED_EDGE('',*,*,#196,.T.);
#236=ORIENTED_EDGE('',*,*,#197,.F.);
#237=ORIENTED_EDGE('',*,*,#197,.T.);
#238=ORIENTED_EDGE('',*,*,#194,.F.);
#239=ORIENTED_EDGE('',*,*,#198,.T.);
#240=ORIENTED_EDGE('',*,*,#199,.F.);
#241=ORIENTED_EDGE('',*,*,#199,.T.);
#242=ORIENTED_EDGE('',*,*,#196,.F.);
#243=ORIENTED_EDGE('',*,*,#200,.F.);
#244=ORIENTED_EDGE('',*,*,#198,.F.);
#245=ORIENTED_EDGE('',*,*,#187,.T.);
#246=ORIENTED_EDGE('',*,*,#201,.T.);
#247=ORIENTED_EDGE('',*,*,#190,.T.);
#248=ORIENTED_EDGE('',*,*,#179,.T.);
#249=ORIENTED_EDGE('',*,*,#200,.T.);
#250=ORIENTED_EDGE('',*,*,#202,.F.);
#251=ORIENTED_EDGE('',*,*,#202,.T.);
#252=ORIENTED_EDGE('',*,*,#201,.F.);
#253=PLANE('',#317);
#254=PLANE('',#324);
#255=PLANE('',#328);
#256=PLANE('',#336);
#257=PLANE('',#339);
#258=PLANE('',#343);
#259=PLANE('',#347);
#260=PLANE('',#351);
#261=PLANE('',#355);
#262=PLANE('',#361);
#263=PLANE('',#364);
#264=STYLED_ITEM('',(#566),#290);
#265=STYLED_ITEM('',(#566),#291);
#266=STYLED_ITEM('',(#566),#292);
#267=STYLED_ITEM('',(#566),#293);
#268=STYLED_ITEM('',(#566),#294);
#269=STYLED_ITEM('',(#566),#295);
#270=STYLED_ITEM('',(#566),#296);
#271=STYLED_ITEM('',(#566),#297);
#272=STYLED_ITEM('',(#566),#298);
#273=STYLED_ITEM('',(#566),#299);
#274=STYLED_ITEM('',(#566),#300);
#275=STYLED_ITEM('',(#566),#301);
#276=STYLED_ITEM('',(#566),#302);
#277=STYLED_ITEM('',(#566),#303);
#278=STYLED_ITEM('',(#566),#304);
#279=STYLED_ITEM('',(#566),#305);
#280=STYLED_ITEM('',(#566),#306);
#281=STYLED_ITEM('',(#566),#307);
#282=STYLED_ITEM('',(#566),#308);
#283=STYLED_ITEM('',(#566),#309);
#284=STYLED_ITEM('',(#566),#310);
#285=STYLED_ITEM('',(#566),#311);
#286=STYLED_ITEM('',(#566),#312);
#287=STYLED_ITEM('',(#566),#313);
#288=STYLED_ITEM('',(#566),#314);
#289=STYLED_ITEM('',(#566),#13);
#290=ADVANCED_FACE('',(#53,#28),#253,.T.);
#291=ADVANCED_FACE('',(#54,#29),#27,.F.);
#292=ADVANCED_FACE('',(#55,#30),#22,.T.);
#293=ADVANCED_FACE('',(#56,#31),#254,.T.);
#294=ADVANCED_FACE('',(#57,#32),#23,.T.);
#295=ADVANCED_FACE('',(#58,#33),#255,.T.);
#296=ADVANCED_FACE('',(#59,#34),#14,.T.);
#297=ADVANCED_FACE('',(#60,#35),#15,.T.);
#298=ADVANCED_FACE('',(#61,#36),#24,.F.);
#299=ADVANCED_FACE('',(#62,#37),#256,.F.);
#300=ADVANCED_FACE('',(#63,#38),#257,.F.);
#301=ADVANCED_FACE('',(#64,#39),#16,.T.);
#302=ADVANCED_FACE('',(#65,#40),#258,.F.);
#303=ADVANCED_FACE('',(#66,#41),#17,.T.);
#304=ADVANCED_FACE('',(#67,#42),#259,.F.);
#305=ADVANCED_FACE('',(#68,#43),#18,.T.);
#306=ADVANCED_FACE('',(#69,#44),#260,.F.);
#307=ADVANCED_FACE('',(#70,#45),#19,.T.);
#308=ADVANCED_FACE('',(#71,#46),#261,.F.);
#309=ADVANCED_FACE('',(#72,#47),#20,.T.);
#310=ADVANCED_FACE('',(#73,#48),#21,.T.);
#311=ADVANCED_FACE('',(#74,#49),#262,.T.);
#312=ADVANCED_FACE('',(#75,#50),#25,.T.);
#313=ADVANCED_FACE('',(#76,#51),#263,.T.);
#314=ADVANCED_FACE('',(#77,#52),#26,.F.);
#315=CLOSED_SHELL('',(#290,#291,#292,#293,#294,#295,#296,#297,#298,#299,
#300,#301,#302,#303,#304,#305,#306,#307,#308,#309,#310,#311,#312,#313,#314));
#316=AXIS2_PLACEMENT_3D('placement',#469,#367,#368);
#317=AXIS2_PLACEMENT_3D('',#470,#369,#370);
#318=AXIS2_PLACEMENT_3D('',#472,#371,#372);
#319=AXIS2_PLACEMENT_3D('',#474,#373,#374);
#320=AXIS2_PLACEMENT_3D('',#475,#375,#376);
#321=AXIS2_PLACEMENT_3D('',#477,#377,#378);
#322=AXIS2_PLACEMENT_3D('',#479,#379,#380);
#323=AXIS2_PLACEMENT_3D('',#480,#381,#382);
#324=AXIS2_PLACEMENT_3D('',#481,#383,#384);
#325=AXIS2_PLACEMENT_3D('',#483,#385,#386);
#326=AXIS2_PLACEMENT_3D('',#484,#387,#388);
#327=AXIS2_PLACEMENT_3D('',#486,#389,#390);
#328=AXIS2_PLACEMENT_3D('',#487,#391,#392);
#329=AXIS2_PLACEMENT_3D('',#489,#393,#394);
#330=AXIS2_PLACEMENT_3D('',#490,#395,#396);
#331=AXIS2_PLACEMENT_3D('',#492,#397,#398);
#332=AXIS2_PLACEMENT_3D('',#493,#399,#400);
#333=AXIS2_PLACEMENT_3D('',#495,#401,#402);
#334=AXIS2_PLACEMENT_3D('',#496,#403,#404);
#335=AXIS2_PLACEMENT_3D('',#498,#405,#406);
#336=AXIS2_PLACEMENT_3D('',#499,#407,#408);
#337=AXIS2_PLACEMENT_3D('',#501,#409,#410);
#338=AXIS2_PLACEMENT_3D('',#503,#411,#412);
#339=AXIS2_PLACEMENT_3D('',#504,#413,#414);
#340=AXIS2_PLACEMENT_3D('',#506,#415,#416);
#341=AXIS2_PLACEMENT_3D('',#508,#417,#418);
#342=AXIS2_PLACEMENT_3D('',#509,#419,#420);
#343=AXIS2_PLACEMENT_3D('',#510,#421,#422);
#344=AXIS2_PLACEMENT_3D('',#512,#423,#424);
#345=AXIS2_PLACEMENT_3D('',#514,#425,#426);
#346=AXIS2_PLACEMENT_3D('',#515,#427,#428);
#347=AXIS2_PLACEMENT_3D('',#516,#429,#430);
#348=AXIS2_PLACEMENT_3D('',#518,#431,#432);
#349=AXIS2_PLACEMENT_3D('',#520,#433,#434);
#350=AXIS2_PLACEMENT_3D('',#521,#435,#436);
#351=AXIS2_PLACEMENT_3D('',#522,#437,#438);
#352=AXIS2_PLACEMENT_3D('',#524,#439,#440);
#353=AXIS2_PLACEMENT_3D('',#526,#441,#442);
#354=AXIS2_PLACEMENT_3D('',#527,#443,#444);
#355=AXIS2_PLACEMENT_3D('',#528,#445,#446);
#356=AXIS2_PLACEMENT_3D('',#530,#447,#448);
#357=AXIS2_PLACEMENT_3D('',#532,#449,#450);
#358=AXIS2_PLACEMENT_3D('',#533,#451,#452);
#359=AXIS2_PLACEMENT_3D('',#534,#453,#454);
#360=AXIS2_PLACEMENT_3D('',#536,#455,#456);
#361=AXIS2_PLACEMENT_3D('',#537,#457,#458);
#362=AXIS2_PLACEMENT_3D('',#539,#459,#460);
#363=AXIS2_PLACEMENT_3D('',#540,#461,#462);
#364=AXIS2_PLACEMENT_3D('',#541,#463,#464);
#365=AXIS2_PLACEMENT_3D('',#543,#465,#466);
#366=AXIS2_PLACEMENT_3D('',#544,#467,#468);
#367=DIRECTION('axis',(0.,0.,1.));
#368=DIRECTION('refdir',(1.,0.,0.));
#369=DIRECTION('center_axis',(1.,0.,0.));
#370=DIRECTION('ref_axis',(0.,0.,-1.));
#371=DIRECTION('center_axis',(-1.,0.,0.));
#372=DIRECTION('ref_axis',(0.,0.,1.));
#373=DIRECTION('center_axis',(1.,0.,0.));
#374=DIRECTION('ref_axis',(0.,0.,-1.));
#375=DIRECTION('center_axis',(-1.,0.,0.));
#376=DIRECTION('ref_axis',(0.,0.,1.));
#377=DIRECTION('center_axis',(-1.,0.,0.));
#378=DIRECTION('ref_axis',(0.,-1.,-1.83690953073357E-16));
#379=DIRECTION('center_axis',(1.,0.,0.));
#380=DIRECTION('ref_axis',(0.,-1.,-1.83690953073357E-16));
#381=DIRECTION('center_axis',(-1.,0.,0.));
#382=DIRECTION('ref_axis',(0.,1.,0.));
#383=DIRECTION('center_axis',(1.,0.,0.));
#384=DIRECTION('ref_axis',(0.,0.,-1.));
#385=DIRECTION('center_axis',(-1.,0.,0.));
#386=DIRECTION('ref_axis',(0.,0.,1.));
#387=DIRECTION('center_axis',(-1.,0.,0.));
#388=DIRECTION('ref_axis',(0.,1.,0.));
#389=DIRECTION('center_axis',(-1.,0.,0.));
#390=DIRECTION('ref_axis',(0.,0.,1.));
#391=DIRECTION('center_axis',(1.,0.,0.));
#392=DIRECTION('ref_axis',(0.,0.,-1.));
#393=DIRECTION('center_axis',(-1.,0.,0.));
#394=DIRECTION('ref_axis',(0.,0.,1.));
#395=DIRECTION('center_axis',(1.,0.,0.));
#396=DIRECTION('ref_axis',(0.,1.,0.));
#397=DIRECTION('center_axis',(-1.,0.,0.));
#398=DIRECTION('ref_axis',(0.,0.,1.));
#399=DIRECTION('center_axis',(1.,0.,0.));
#400=DIRECTION('ref_axis',(0.,1.,0.));
#401=DIRECTION('center_axis',(-1.,0.,0.));
#402=DIRECTION('ref_axis',(0.,0.,1.));
#403=DIRECTION('center_axis',(-1.,0.,0.));
#404=DIRECTION('ref_axis',(0.,1.,0.));
#405=DIRECTION('center_axis',(-1.,0.,0.));
#406=DIRECTION('ref_axis',(0.,1.,0.));
#407=DIRECTION('center_axis',(1.,0.,0.));
#408=DIRECTION('ref_axis',(0.,0.,-1.));
#409=DIRECTION('center_axis',(-1.,0.,0.));
#410=DIRECTION('ref_axis',(0.,0.,1.));
#411=DIRECTION('center_axis',(-1.,0.,0.));
#412=DIRECTION('ref_axis',(0.,0.,1.));
#413=DIRECTION('center_axis',(-1.,0.,0.));
#414=DIRECTION('ref_axis',(0.,0.,1.));
#415=DIRECTION('center_axis',(-1.,0.,0.));
#416=DIRECTION('ref_axis',(0.,1.,0.));
#417=DIRECTION('center_axis',(-1.,0.,0.));
#418=DIRECTION('ref_axis',(0.,0.,1.));
#419=DIRECTION('center_axis',(-1.,0.,0.));
#420=DIRECTION('ref_axis',(0.,1.,0.));
#421=DIRECTION('center_axis',(1.,0.,0.));
#422=DIRECTION('ref_axis',(0.,0.,-1.));
#423=DIRECTION('center_axis',(-1.,0.,0.));
#424=DIRECTION('ref_axis',(0.,0.,1.));
#425=DIRECTION('center_axis',(-1.,0.,0.));
#426=DIRECTION('ref_axis',(0.,0.,1.));
#427=DIRECTION('center_axis',(-1.,0.,0.));
#428=DIRECTION('ref_axis',(0.,1.,0.));
#429=DIRECTION('center_axis',(1.,0.,0.));
#430=DIRECTION('ref_axis',(0.,0.,-1.));
#431=DIRECTION('center_axis',(-1.,0.,0.));
#432=DIRECTION('ref_axis',(0.,0.,1.));
#433=DIRECTION('center_axis',(-1.,0.,0.));
#434=DIRECTION('ref_axis',(0.,0.,1.));
#435=DIRECTION('center_axis',(-1.,0.,0.));
#436=DIRECTION('ref_axis',(0.,1.,0.));
#437=DIRECTION('center_axis',(1.,0.,0.));
#438=DIRECTION('ref_axis',(0.,0.,-1.));
#439=DIRECTION('center_axis',(-1.,0.,0.));
#440=DIRECTION('ref_axis',(0.,0.,1.));
#441=DIRECTION('center_axis',(-1.,0.,0.));
#442=DIRECTION('ref_axis',(0.,0.,1.));
#443=DIRECTION('center_axis',(-1.,0.,0.));
#444=DIRECTION('ref_axis',(0.,1.,0.));
#445=DIRECTION('center_axis',(1.,0.,0.));
#446=DIRECTION('ref_axis',(0.,0.,-1.));
#447=DIRECTION('center_axis',(-1.,0.,0.));
#448=DIRECTION('ref_axis',(0.,0.,1.));
#449=DIRECTION('center_axis',(-1.,0.,0.));
#450=DIRECTION('ref_axis',(0.,0.,1.));
#451=DIRECTION('center_axis',(-1.,0.,0.));
#452=DIRECTION('ref_axis',(0.,1.,0.));
#453=DIRECTION('center_axis',(-1.,0.,0.));
#454=DIRECTION('ref_axis',(0.,1.,0.));
#455=DIRECTION('center_axis',(1.,0.,0.));
#456=DIRECTION('ref_axis',(0.,1.,0.));
#457=DIRECTION('center_axis',(-1.,0.,0.));
#458=DIRECTION('ref_axis',(0.,0.,1.));
#459=DIRECTION('center_axis',(1.,0.,0.));
#460=DIRECTION('ref_axis',(0.,0.,-1.));
#461=DIRECTION('center_axis',(1.,0.,0.));
#462=DIRECTION('ref_axis',(0.,1.,0.));
#463=DIRECTION('center_axis',(1.,0.,0.));
#464=DIRECTION('ref_axis',(0.,0.,-1.));
#465=DIRECTION('center_axis',(1.,0.,0.));
#466=DIRECTION('ref_axis',(0.,0.,-1.));
#467=DIRECTION('center_axis',(1.,0.,0.));
#468=DIRECTION('ref_axis',(0.,1.,0.));
#469=CARTESIAN_POINT('',(0.,0.,0.));
#470=CARTESIAN_POINT('Origin',(-149.,77.5,0.));
#471=CARTESIAN_POINT('',(-149.,77.5,0.));
#472=CARTESIAN_POINT('Origin',(-149.,0.,0.));
#473=CARTESIAN_POINT('',(-149.,77.,0.));
#474=CARTESIAN_POINT('Origin',(-149.,0.,0.));
#475=CARTESIAN_POINT('Origin',(-159.5,0.,0.));
#476=CARTESIAN_POINT('',(-159.5,77.5,4.74534962106171E-15));
#477=CARTESIAN_POINT('Origin',(-159.5,0.,0.));
#478=CARTESIAN_POINT('',(-162.,80.,2.44921270764476E-14));
#479=CARTESIAN_POINT('Origin',(-162.,0.,0.));
#480=CARTESIAN_POINT('Origin',(-155.5,0.,0.));
#481=CARTESIAN_POINT('Origin',(-162.,81.5,0.));
#482=CARTESIAN_POINT('',(-162.,81.5,0.));
#483=CARTESIAN_POINT('Origin',(-162.,0.,0.));
#484=CARTESIAN_POINT('Origin',(-165.,0.,0.));
#485=CARTESIAN_POINT('',(-168.,81.5,0.));
#486=CARTESIAN_POINT('Origin',(-168.,0.,0.));
#487=CARTESIAN_POINT('Origin',(-168.,88.,0.));
#488=CARTESIAN_POINT('',(-168.,88.,0.));
#489=CARTESIAN_POINT('Origin',(-168.,0.,0.));
#490=CARTESIAN_POINT('Origin',(-176.633719808202,0.,0.));
#491=CARTESIAN_POINT('',(-185.267439616404,83.3732034994313,0.));
#492=CARTESIAN_POINT('Origin',(-185.267439616404,0.,0.));
#493=CARTESIAN_POINT('Origin',(-185.633719808202,0.,0.));
#494=CARTESIAN_POINT('',(-186.,75.,0.));
#495=CARTESIAN_POINT('Origin',(-186.,0.,0.));
#496=CARTESIAN_POINT('Origin',(-167.5,0.,0.));
#497=CARTESIAN_POINT('',(-149.,75.,0.));
#498=CARTESIAN_POINT('Origin',(-149.,0.,0.));
#499=CARTESIAN_POINT('Origin',(-75.,78.4,0.));
#500=CARTESIAN_POINT('',(-75.,76.9765635289852,0.));
#501=CARTESIAN_POINT('Origin',(-75.,0.,0.));
#502=CARTESIAN_POINT('',(-75.,75.4,0.));
#503=CARTESIAN_POINT('Origin',(-75.,0.,0.));
#504=CARTESIAN_POINT('Origin',(-90.,76.9765635289852,0.));
#505=CARTESIAN_POINT('',(-90.,-77.,9.42978035343462E-15));
#506=CARTESIAN_POINT('Origin',(-90.,0.,0.));
#507=CARTESIAN_POINT('',(-90.,76.9765635289852,0.));
#508=CARTESIAN_POINT('Origin',(-90.,0.,0.));
#509=CARTESIAN_POINT('Origin',(-82.5,0.,0.));
#510=CARTESIAN_POINT('Origin',(-60.,78.4,0.));
#511=CARTESIAN_POINT('',(-60.,76.9765635289852,0.));
#512=CARTESIAN_POINT('Origin',(-60.,0.,0.));
#513=CARTESIAN_POINT('',(-60.,75.4,0.));
#514=CARTESIAN_POINT('Origin',(-60.,0.,0.));
#515=CARTESIAN_POINT('Origin',(-67.5,0.,0.));
#516=CARTESIAN_POINT('Origin',(-45.,78.4,0.));
#517=CARTESIAN_POINT('',(-45.,76.9765635289852,0.));
#518=CARTESIAN_POINT('Origin',(-45.,0.,0.));
#519=CARTESIAN_POINT('',(-45.,75.4,0.));
#520=CARTESIAN_POINT('Origin',(-45.,0.,0.));
#521=CARTESIAN_POINT('Origin',(-52.5,0.,0.));
#522=CARTESIAN_POINT('Origin',(-30.,78.4,0.));
#523=CARTESIAN_POINT('',(-30.,76.9765635289852,0.));
#524=CARTESIAN_POINT('Origin',(-30.,0.,0.));
#525=CARTESIAN_POINT('',(-30.,75.4,0.));
#526=CARTESIAN_POINT('Origin',(-30.,0.,0.));
#527=CARTESIAN_POINT('Origin',(-37.5,0.,0.));
#528=CARTESIAN_POINT('Origin',(-15.,78.4,0.));
#529=CARTESIAN_POINT('',(-15.,76.9765635289852,0.));
#530=CARTESIAN_POINT('Origin',(-15.,0.,0.));
#531=CARTESIAN_POINT('',(-15.,75.4,0.));
#532=CARTESIAN_POINT('Origin',(-15.,0.,0.));
#533=CARTESIAN_POINT('Origin',(-22.5,0.,0.));
#534=CARTESIAN_POINT('Origin',(-7.50000000000001,0.,0.));
#535=CARTESIAN_POINT('',(0.,75.4,0.));
#536=CARTESIAN_POINT('Origin',(-1.33226762955019E-14,0.,0.));
#537=CARTESIAN_POINT('Origin',(-149.,77.,0.));
#538=CARTESIAN_POINT('',(-149.,70.,0.));
#539=CARTESIAN_POINT('Origin',(-149.,0.,0.));
#540=CARTESIAN_POINT('Origin',(-74.5,0.,0.));
#541=CARTESIAN_POINT('Origin',(-1.28587913910472E-14,70.,0.));
#542=CARTESIAN_POINT('',(-1.28587913910472E-14,70.,0.));
#543=CARTESIAN_POINT('Origin',(-1.77635683940025E-14,0.,0.));
#544=CARTESIAN_POINT('Origin',(-74.5,0.,0.));
#545=UNCERTAINTY_MEASURE_WITH_UNIT(LENGTH_MEASURE(0.01),#549,
'DISTANCE_ACCURACY_VALUE',
'Maximum model space distance between geometric entities at asserted c
onnectivities');
#546=UNCERTAINTY_MEASURE_WITH_UNIT(LENGTH_MEASURE(1.E-6),#549,
'DISTANCE_ACCURACY_VALUE',
'Maximum model space distance between geometric entities at asserted c
onnectivities');
#547=(
GEOMETRIC_REPRESENTATION_CONTEXT(3)
GLOBAL_UNCERTAINTY_ASSIGNED_CONTEXT((#545))
GLOBAL_UNIT_ASSIGNED_CONTEXT((#549,#552,#550))
REPRESENTATION_CONTEXT('','3D')
);
#548=(
GEOMETRIC_REPRESENTATION_CONTEXT(3)
GLOBAL_UNCERTAINTY_ASSIGNED_CONTEXT((#546))
GLOBAL_UNIT_ASSIGNED_CONTEXT((#549,#552,#550))
REPRESENTATION_CONTEXT('','3D')
);
#549=(
LENGTH_UNIT()
NAMED_UNIT(*)
SI_UNIT(.MILLI.,.METRE.)
);
#550=(
NAMED_UNIT(*)
SI_UNIT($,.STERADIAN.)
SOLID_ANGLE_UNIT()
);
#551=DIMENSIONAL_EXPONENTS(0.,0.,0.,0.,0.,0.,0.);
#552=(
CONVERSION_BASED_UNIT('degree',#554)
NAMED_UNIT(#551)
PLANE_ANGLE_UNIT()
);
#553=(
NAMED_UNIT(*)
PLANE_ANGLE_UNIT()
SI_UNIT($,.RADIAN.)
);
#554=PLANE_ANGLE_MEASURE_WITH_UNIT(PLANE_ANGLE_MEASURE(0.01745329252),#553);
#555=SHAPE_DEFINITION_REPRESENTATION(#556,#557);
#556=PRODUCT_DEFINITION_SHAPE('',$,#559);
#557=SHAPE_REPRESENTATION('',(#316),#547);
#558=DESIGN_CONTEXT('part definition',#563,'design');
#559=PRODUCT_DEFINITION('26040150000','26040150000',#560,#558);
#560=PRODUCT_DEFINITION_FORMATION('',$,#565);
#561=PRODUCT_RELATED_PRODUCT_CATEGORY('26040150000','26040150000',(#565));
#562=APPLICATION_PROTOCOL_DEFINITION('international standard',
'ap203_configuration_controlled_3d_design_of_mechanical_parts_and_asse
mblies_mim_lf',2004,#563);
#563=APPLICATION_CONTEXT(
'Configuration Controlled 3D Design of Mechanical Parts and Assemblies');
#564=MECHANICAL_CONTEXT('part definition',#563,'mechanical');
#565=PRODUCT('26040150000','26040150000',$,(#564));
#566=PRESENTATION_STYLE_ASSIGNMENT((#567));
#567=SURFACE_STYLE_USAGE(.BOTH.,#568);
#568=SURFACE_SIDE_STYLE($,(#569));
#569=SURFACE_STYLE_FILL_AREA(#570);
#570=FILL_AREA_STYLE($,(#571));
#571=FILL_AREA_STYLE_COLOUR($,#572);
#572=COLOUR_RGB('',0.745098039215686,0.737254901960784,0.729411764705882);
ENDSEC;
END-ISO-10303-21;
