ISO-10303-21;
HEADER;
/* Generated by software containing ST-Developer
 * from STEP Tools, Inc. (www.steptools.com) 
 */

FILE_DESCRIPTION(
/* description */ (''),
/* implementation_level */ '2;1');

FILE_NAME(
/* name */ 
'C:\\Vault_Workspace\\DATA\\Katalog Bupospol\\2 Potrubn\X\ED d\X\EDly\\
2.6 Hadicov\X\E9 n\X\E1stavce\\26070\\26070\\26070010000.stp',
/* time_stamp */ '2016-03-08T11:58:38+01:00',
/* author */ ('Struska'),
/* organization */ ('BUPOSPOL'),
/* preprocessor_version */ 'ST-DEVELOPER v15.6',
/* originating_system */ 'Autodesk Inventor 2015',
/* authorisation */ '');

FILE_SCHEMA (('CONFIG_CONTROL_DESIGN'));
ENDSEC;

DATA;
#10=MECHANICAL_DESIGN_GEOMETRIC_PRESENTATION_REPRESENTATION('',(#273,#276,
#269,#287,#284,#283,#274,#275,#286,#289,#278,#280,#271,#266,#277,#267,#288,
#281,#272,#268,#279,#265,#285,#270,#282,#264),#548);
#11=SHAPE_REPRESENTATION_RELATIONSHIP('SRR','None',#557,#12);
#12=ADVANCED_BREP_SHAPE_REPRESENTATION($,(#13),#547);
#13=MANIFOLD_SOLID_BREP('T\X2\011B\X0\leso1',#315);
#14=CONICAL_SURFACE('',#327,14.0464617740863,70.);
#15=CONICAL_SURFACE('',#334,15.0390141017566,22.9999999999998);
#16=CONICAL_SURFACE('',#339,12.4609858982434,23.);
#17=CONICAL_SURFACE('',#350,7.11835368270871,6.99999999999998);
#18=CONICAL_SURFACE('',#354,7.11835368270871,6.99999999999998);
#19=CONICAL_SURFACE('',#358,7.11835368270871,6.99999999999998);
#20=CONICAL_SURFACE('',#359,7.11835368270871,6.99999999999998);
#21=PLANE('',#322);
#22=PLANE('',#333);
#23=PLANE('',#341);
#24=PLANE('',#344);
#25=PLANE('',#347);
#26=PLANE('',#351);
#27=PLANE('',#355);
#28=PLANE('',#361);
#29=PLANE('',#364);
#30=CYLINDRICAL_SURFACE('',#320,6.5);
#31=CYLINDRICAL_SURFACE('',#328,17.);
#32=CYLINDRICAL_SURFACE('',#363,7.5);
#33=CYLINDRICAL_SURFACE('',#366,5.);
#34=FACE_BOUND('',#85,.T.);
#35=FACE_BOUND('',#87,.T.);
#36=FACE_BOUND('',#89,.T.);
#37=FACE_BOUND('',#91,.T.);
#38=FACE_BOUND('',#93,.T.);
#39=FACE_BOUND('',#95,.T.);
#40=FACE_BOUND('',#97,.T.);
#41=FACE_BOUND('',#99,.T.);
#42=FACE_BOUND('',#101,.T.);
#43=FACE_BOUND('',#103,.T.);
#44=FACE_BOUND('',#105,.T.);
#45=FACE_BOUND('',#107,.T.);
#46=FACE_BOUND('',#109,.T.);
#47=FACE_BOUND('',#111,.T.);
#48=FACE_BOUND('',#113,.T.);
#49=FACE_BOUND('',#115,.T.);
#50=FACE_BOUND('',#117,.T.);
#51=FACE_BOUND('',#119,.T.);
#52=FACE_BOUND('',#121,.T.);
#53=FACE_BOUND('',#123,.T.);
#54=FACE_BOUND('',#125,.T.);
#55=FACE_BOUND('',#127,.T.);
#56=FACE_BOUND('',#129,.T.);
#57=FACE_BOUND('',#131,.T.);
#58=FACE_BOUND('',#133,.T.);
#59=FACE_OUTER_BOUND('',#84,.T.);
#60=FACE_OUTER_BOUND('',#86,.T.);
#61=FACE_OUTER_BOUND('',#88,.T.);
#62=FACE_OUTER_BOUND('',#90,.T.);
#63=FACE_OUTER_BOUND('',#92,.T.);
#64=FACE_OUTER_BOUND('',#94,.T.);
#65=FACE_OUTER_BOUND('',#96,.T.);
#66=FACE_OUTER_BOUND('',#98,.T.);
#67=FACE_OUTER_BOUND('',#100,.T.);
#68=FACE_OUTER_BOUND('',#102,.T.);
#69=FACE_OUTER_BOUND('',#104,.T.);
#70=FACE_OUTER_BOUND('',#106,.T.);
#71=FACE_OUTER_BOUND('',#108,.T.);
#72=FACE_OUTER_BOUND('',#110,.T.);
#73=FACE_OUTER_BOUND('',#112,.T.);
#74=FACE_OUTER_BOUND('',#114,.T.);
#75=FACE_OUTER_BOUND('',#116,.T.);
#76=FACE_OUTER_BOUND('',#118,.T.);
#77=FACE_OUTER_BOUND('',#120,.T.);
#78=FACE_OUTER_BOUND('',#122,.T.);
#79=FACE_OUTER_BOUND('',#124,.T.);
#80=FACE_OUTER_BOUND('',#126,.T.);
#81=FACE_OUTER_BOUND('',#128,.T.);
#82=FACE_OUTER_BOUND('',#130,.T.);
#83=FACE_OUTER_BOUND('',#132,.T.);
#84=EDGE_LOOP('',(#209));
#85=EDGE_LOOP('',(#210));
#86=EDGE_LOOP('',(#211));
#87=EDGE_LOOP('',(#212));
#88=EDGE_LOOP('',(#213));
#89=EDGE_LOOP('',(#214));
#90=EDGE_LOOP('',(#215));
#91=EDGE_LOOP('',(#216));
#92=EDGE_LOOP('',(#217));
#93=EDGE_LOOP('',(#218));
#94=EDGE_LOOP('',(#219));
#95=EDGE_LOOP('',(#220));
#96=EDGE_LOOP('',(#221));
#97=EDGE_LOOP('',(#222));
#98=EDGE_LOOP('',(#223));
#99=EDGE_LOOP('',(#224));
#100=EDGE_LOOP('',(#225));
#101=EDGE_LOOP('',(#226));
#102=EDGE_LOOP('',(#227));
#103=EDGE_LOOP('',(#228));
#104=EDGE_LOOP('',(#229));
#105=EDGE_LOOP('',(#230));
#106=EDGE_LOOP('',(#231));
#107=EDGE_LOOP('',(#232));
#108=EDGE_LOOP('',(#233));
#109=EDGE_LOOP('',(#234));
#110=EDGE_LOOP('',(#235));
#111=EDGE_LOOP('',(#236));
#112=EDGE_LOOP('',(#237));
#113=EDGE_LOOP('',(#238));
#114=EDGE_LOOP('',(#239));
#115=EDGE_LOOP('',(#240));
#116=EDGE_LOOP('',(#241));
#117=EDGE_LOOP('',(#242));
#118=EDGE_LOOP('',(#243));
#119=EDGE_LOOP('',(#244));
#120=EDGE_LOOP('',(#245));
#121=EDGE_LOOP('',(#246));
#122=EDGE_LOOP('',(#247));
#123=EDGE_LOOP('',(#248));
#124=EDGE_LOOP('',(#249));
#125=EDGE_LOOP('',(#250));
#126=EDGE_LOOP('',(#251));
#127=EDGE_LOOP('',(#252));
#128=EDGE_LOOP('',(#253));
#129=EDGE_LOOP('',(#254));
#130=EDGE_LOOP('',(#255));
#131=EDGE_LOOP('',(#256));
#132=EDGE_LOOP('',(#257));
#133=EDGE_LOOP('',(#258));
#134=CIRCLE('',#318,6.5);
#135=CIRCLE('',#319,8.5);
#136=CIRCLE('',#321,6.5);
#137=CIRCLE('',#323,11.0929235481725);
#138=CIRCLE('',#325,16.4736161146605);
#139=CIRCLE('',#326,17.);
#140=CIRCLE('',#329,17.);
#141=CIRCLE('',#331,15.7529308283267);
#142=CIRCLE('',#332,15.0165269455648);
#143=CIRCLE('',#335,14.8546058241429);
#144=CIRCLE('',#337,12.4834730544352);
#145=CIRCLE('',#338,11.7470691716732);
#146=CIRCLE('',#340,12.6453941758571);
#147=CIRCLE('',#342,5.);
#148=CIRCLE('',#345,7.48670736541742);
#149=CIRCLE('',#346,6.75);
#150=CIRCLE('',#348,7.5);
#151=CIRCLE('',#349,7.48670736541742);
#152=CIRCLE('',#352,7.48670736541742);
#153=CIRCLE('',#353,6.75);
#154=CIRCLE('',#356,7.48670736541742);
#155=CIRCLE('',#357,6.75);
#156=CIRCLE('',#360,6.75);
#157=CIRCLE('',#362,7.5);
#158=CIRCLE('',#365,5.);
#159=VERTEX_POINT('',#471);
#160=VERTEX_POINT('',#473);
#161=VERTEX_POINT('',#476);
#162=VERTEX_POINT('',#479);
#163=VERTEX_POINT('',#482);
#164=VERTEX_POINT('',#484);
#165=VERTEX_POINT('',#488);
#166=VERTEX_POINT('',#491);
#167=VERTEX_POINT('',#493);
#168=VERTEX_POINT('',#497);
#169=VERTEX_POINT('',#500);
#170=VERTEX_POINT('',#502);
#171=VERTEX_POINT('',#505);
#172=VERTEX_POINT('',#508);
#173=VERTEX_POINT('',#512);
#174=VERTEX_POINT('',#514);
#175=VERTEX_POINT('',#517);
#176=VERTEX_POINT('',#519);
#177=VERTEX_POINT('',#523);
#178=VERTEX_POINT('',#525);
#179=VERTEX_POINT('',#529);
#180=VERTEX_POINT('',#531);
#181=VERTEX_POINT('',#535);
#182=VERTEX_POINT('',#538);
#183=VERTEX_POINT('',#542);
#184=EDGE_CURVE('',#159,#159,#134,.T.);
#185=EDGE_CURVE('',#160,#160,#135,.T.);
#186=EDGE_CURVE('',#161,#161,#136,.T.);
#187=EDGE_CURVE('',#162,#162,#137,.T.);
#188=EDGE_CURVE('',#163,#163,#138,.T.);
#189=EDGE_CURVE('',#164,#164,#139,.T.);
#190=EDGE_CURVE('',#165,#165,#140,.T.);
#191=EDGE_CURVE('',#166,#166,#141,.T.);
#192=EDGE_CURVE('',#167,#167,#142,.T.);
#193=EDGE_CURVE('',#168,#168,#143,.T.);
#194=EDGE_CURVE('',#169,#169,#144,.T.);
#195=EDGE_CURVE('',#170,#170,#145,.T.);
#196=EDGE_CURVE('',#171,#171,#146,.T.);
#197=EDGE_CURVE('',#172,#172,#147,.T.);
#198=EDGE_CURVE('',#173,#173,#148,.T.);
#199=EDGE_CURVE('',#174,#174,#149,.T.);
#200=EDGE_CURVE('',#175,#175,#150,.T.);
#201=EDGE_CURVE('',#176,#176,#151,.T.);
#202=EDGE_CURVE('',#177,#177,#152,.T.);
#203=EDGE_CURVE('',#178,#178,#153,.T.);
#204=EDGE_CURVE('',#179,#179,#154,.T.);
#205=EDGE_CURVE('',#180,#180,#155,.T.);
#206=EDGE_CURVE('',#181,#181,#156,.T.);
#207=EDGE_CURVE('',#182,#182,#157,.T.);
#208=EDGE_CURVE('',#183,#183,#158,.T.);
#209=ORIENTED_EDGE('',*,*,#184,.T.);
#210=ORIENTED_EDGE('',*,*,#185,.T.);
#211=ORIENTED_EDGE('',*,*,#186,.F.);
#212=ORIENTED_EDGE('',*,*,#184,.F.);
#213=ORIENTED_EDGE('',*,*,#187,.F.);
#214=ORIENTED_EDGE('',*,*,#185,.F.);
#215=ORIENTED_EDGE('',*,*,#188,.T.);
#216=ORIENTED_EDGE('',*,*,#189,.T.);
#217=ORIENTED_EDGE('',*,*,#187,.T.);
#218=ORIENTED_EDGE('',*,*,#188,.F.);
#219=ORIENTED_EDGE('',*,*,#190,.F.);
#220=ORIENTED_EDGE('',*,*,#189,.F.);
#221=ORIENTED_EDGE('',*,*,#191,.T.);
#222=ORIENTED_EDGE('',*,*,#192,.T.);
#223=ORIENTED_EDGE('',*,*,#190,.T.);
#224=ORIENTED_EDGE('',*,*,#191,.F.);
#225=ORIENTED_EDGE('',*,*,#193,.F.);
#226=ORIENTED_EDGE('',*,*,#192,.F.);
#227=ORIENTED_EDGE('',*,*,#194,.T.);
#228=ORIENTED_EDGE('',*,*,#195,.T.);
#229=ORIENTED_EDGE('',*,*,#196,.T.);
#230=ORIENTED_EDGE('',*,*,#194,.F.);
#231=ORIENTED_EDGE('',*,*,#195,.F.);
#232=ORIENTED_EDGE('',*,*,#197,.F.);
#233=ORIENTED_EDGE('',*,*,#193,.T.);
#234=ORIENTED_EDGE('',*,*,#196,.F.);
#235=ORIENTED_EDGE('',*,*,#198,.T.);
#236=ORIENTED_EDGE('',*,*,#199,.F.);
#237=ORIENTED_EDGE('',*,*,#200,.F.);
#238=ORIENTED_EDGE('',*,*,#201,.T.);
#239=ORIENTED_EDGE('',*,*,#199,.T.);
#240=ORIENTED_EDGE('',*,*,#201,.F.);
#241=ORIENTED_EDGE('',*,*,#202,.T.);
#242=ORIENTED_EDGE('',*,*,#203,.F.);
#243=ORIENTED_EDGE('',*,*,#203,.T.);
#244=ORIENTED_EDGE('',*,*,#198,.F.);
#245=ORIENTED_EDGE('',*,*,#204,.T.);
#246=ORIENTED_EDGE('',*,*,#205,.F.);
#247=ORIENTED_EDGE('',*,*,#205,.T.);
#248=ORIENTED_EDGE('',*,*,#202,.F.);
#249=ORIENTED_EDGE('',*,*,#206,.F.);
#250=ORIENTED_EDGE('',*,*,#204,.F.);
#251=ORIENTED_EDGE('',*,*,#207,.F.);
#252=ORIENTED_EDGE('',*,*,#186,.T.);
#253=ORIENTED_EDGE('',*,*,#200,.T.);
#254=ORIENTED_EDGE('',*,*,#207,.T.);
#255=ORIENTED_EDGE('',*,*,#206,.T.);
#256=ORIENTED_EDGE('',*,*,#208,.F.);
#257=ORIENTED_EDGE('',*,*,#197,.T.);
#258=ORIENTED_EDGE('',*,*,#208,.T.);
#259=TOROIDAL_SURFACE('',#317,8.5,2.);
#260=TOROIDAL_SURFACE('',#324,16.2,0.8);
#261=TOROIDAL_SURFACE('',#330,15.7529308283268,0.8);
#262=TOROIDAL_SURFACE('',#336,11.7470691716732,0.8);
#263=TOROIDAL_SURFACE('',#343,13.75,1.2);
#264=STYLED_ITEM('',(#566),#290);
#265=STYLED_ITEM('',(#566),#291);
#266=STYLED_ITEM('',(#566),#292);
#267=STYLED_ITEM('',(#566),#293);
#268=STYLED_ITEM('',(#566),#294);
#269=STYLED_ITEM('',(#566),#295);
#270=STYLED_ITEM('',(#566),#296);
#271=STYLED_ITEM('',(#566),#297);
#272=STYLED_ITEM('',(#566),#298);
#273=STYLED_ITEM('',(#566),#299);
#274=STYLED_ITEM('',(#566),#300);
#275=STYLED_ITEM('',(#566),#301);
#276=STYLED_ITEM('',(#566),#302);
#277=STYLED_ITEM('',(#566),#303);
#278=STYLED_ITEM('',(#566),#304);
#279=STYLED_ITEM('',(#566),#305);
#280=STYLED_ITEM('',(#566),#306);
#281=STYLED_ITEM('',(#566),#307);
#282=STYLED_ITEM('',(#566),#308);
#283=STYLED_ITEM('',(#566),#309);
#284=STYLED_ITEM('',(#566),#310);
#285=STYLED_ITEM('',(#566),#311);
#286=STYLED_ITEM('',(#566),#312);
#287=STYLED_ITEM('',(#566),#313);
#288=STYLED_ITEM('',(#566),#314);
#289=STYLED_ITEM('',(#566),#13);
#290=ADVANCED_FACE('',(#59,#34),#259,.F.);
#291=ADVANCED_FACE('',(#60,#35),#30,.T.);
#292=ADVANCED_FACE('',(#61,#36),#21,.T.);
#293=ADVANCED_FACE('',(#62,#37),#260,.T.);
#294=ADVANCED_FACE('',(#63,#38),#14,.T.);
#295=ADVANCED_FACE('',(#64,#39),#31,.T.);
#296=ADVANCED_FACE('',(#65,#40),#261,.T.);
#297=ADVANCED_FACE('',(#66,#41),#22,.T.);
#298=ADVANCED_FACE('',(#67,#42),#15,.F.);
#299=ADVANCED_FACE('',(#68,#43),#262,.T.);
#300=ADVANCED_FACE('',(#69,#44),#16,.T.);
#301=ADVANCED_FACE('',(#70,#45),#23,.T.);
#302=ADVANCED_FACE('',(#71,#46),#263,.F.);
#303=ADVANCED_FACE('',(#72,#47),#24,.F.);
#304=ADVANCED_FACE('',(#73,#48),#25,.F.);
#305=ADVANCED_FACE('',(#74,#49),#17,.T.);
#306=ADVANCED_FACE('',(#75,#50),#26,.F.);
#307=ADVANCED_FACE('',(#76,#51),#18,.T.);
#308=ADVANCED_FACE('',(#77,#52),#27,.F.);
#309=ADVANCED_FACE('',(#78,#53),#19,.T.);
#310=ADVANCED_FACE('',(#79,#54),#20,.T.);
#311=ADVANCED_FACE('',(#80,#55),#28,.T.);
#312=ADVANCED_FACE('',(#81,#56),#32,.T.);
#313=ADVANCED_FACE('',(#82,#57),#29,.T.);
#314=ADVANCED_FACE('',(#83,#58),#33,.F.);
#315=CLOSED_SHELL('',(#290,#291,#292,#293,#294,#295,#296,#297,#298,#299,
#300,#301,#302,#303,#304,#305,#306,#307,#308,#309,#310,#311,#312,#313,#314));
#316=AXIS2_PLACEMENT_3D('placement',#469,#367,#368);
#317=AXIS2_PLACEMENT_3D('',#470,#369,#370);
#318=AXIS2_PLACEMENT_3D('',#472,#371,#372);
#319=AXIS2_PLACEMENT_3D('',#474,#373,#374);
#320=AXIS2_PLACEMENT_3D('',#475,#375,#376);
#321=AXIS2_PLACEMENT_3D('',#477,#377,#378);
#322=AXIS2_PLACEMENT_3D('',#478,#379,#380);
#323=AXIS2_PLACEMENT_3D('',#480,#381,#382);
#324=AXIS2_PLACEMENT_3D('',#481,#383,#384);
#325=AXIS2_PLACEMENT_3D('',#483,#385,#386);
#326=AXIS2_PLACEMENT_3D('',#485,#387,#388);
#327=AXIS2_PLACEMENT_3D('',#486,#389,#390);
#328=AXIS2_PLACEMENT_3D('',#487,#391,#392);
#329=AXIS2_PLACEMENT_3D('',#489,#393,#394);
#330=AXIS2_PLACEMENT_3D('',#490,#395,#396);
#331=AXIS2_PLACEMENT_3D('',#492,#397,#398);
#332=AXIS2_PLACEMENT_3D('',#494,#399,#400);
#333=AXIS2_PLACEMENT_3D('',#495,#401,#402);
#334=AXIS2_PLACEMENT_3D('',#496,#403,#404);
#335=AXIS2_PLACEMENT_3D('',#498,#405,#406);
#336=AXIS2_PLACEMENT_3D('',#499,#407,#408);
#337=AXIS2_PLACEMENT_3D('',#501,#409,#410);
#338=AXIS2_PLACEMENT_3D('',#503,#411,#412);
#339=AXIS2_PLACEMENT_3D('',#504,#413,#414);
#340=AXIS2_PLACEMENT_3D('',#506,#415,#416);
#341=AXIS2_PLACEMENT_3D('',#507,#417,#418);
#342=AXIS2_PLACEMENT_3D('',#509,#419,#420);
#343=AXIS2_PLACEMENT_3D('',#510,#421,#422);
#344=AXIS2_PLACEMENT_3D('',#511,#423,#424);
#345=AXIS2_PLACEMENT_3D('',#513,#425,#426);
#346=AXIS2_PLACEMENT_3D('',#515,#427,#428);
#347=AXIS2_PLACEMENT_3D('',#516,#429,#430);
#348=AXIS2_PLACEMENT_3D('',#518,#431,#432);
#349=AXIS2_PLACEMENT_3D('',#520,#433,#434);
#350=AXIS2_PLACEMENT_3D('',#521,#435,#436);
#351=AXIS2_PLACEMENT_3D('',#522,#437,#438);
#352=AXIS2_PLACEMENT_3D('',#524,#439,#440);
#353=AXIS2_PLACEMENT_3D('',#526,#441,#442);
#354=AXIS2_PLACEMENT_3D('',#527,#443,#444);
#355=AXIS2_PLACEMENT_3D('',#528,#445,#446);
#356=AXIS2_PLACEMENT_3D('',#530,#447,#448);
#357=AXIS2_PLACEMENT_3D('',#532,#449,#450);
#358=AXIS2_PLACEMENT_3D('',#533,#451,#452);
#359=AXIS2_PLACEMENT_3D('',#534,#453,#454);
#360=AXIS2_PLACEMENT_3D('',#536,#455,#456);
#361=AXIS2_PLACEMENT_3D('',#537,#457,#458);
#362=AXIS2_PLACEMENT_3D('',#539,#459,#460);
#363=AXIS2_PLACEMENT_3D('',#540,#461,#462);
#364=AXIS2_PLACEMENT_3D('',#541,#463,#464);
#365=AXIS2_PLACEMENT_3D('',#543,#465,#466);
#366=AXIS2_PLACEMENT_3D('',#544,#467,#468);
#367=DIRECTION('axis',(0.,0.,1.));
#368=DIRECTION('refdir',(1.,0.,0.));
#369=DIRECTION('center_axis',(-1.,1.12589809441193E-16,3.36932255077983E-17));
#370=DIRECTION('ref_axis',(0.,0.26009097340166,0.965584116250354));
#371=DIRECTION('center_axis',(-1.,1.12589809441193E-16,3.36932255077983E-17));
#372=DIRECTION('ref_axis',(-9.99516278287055E-17,-0.965584116250354,0.26009097340166));
#373=DIRECTION('center_axis',(1.,-1.12589809441193E-16,-3.36932255077983E-17));
#374=DIRECTION('ref_axis',(-9.99516278287055E-17,-0.965584116250354,0.26009097340166));
#375=DIRECTION('center_axis',(-1.,1.12589809441193E-16,3.36932255077983E-17));
#376=DIRECTION('ref_axis',(9.99516278287055E-17,0.965584116250354,-0.26009097340166));
#377=DIRECTION('center_axis',(1.,0.,0.));
#378=DIRECTION('ref_axis',(9.99516278287055E-17,0.965584116250354,-0.26009097340166));
#379=DIRECTION('center_axis',(1.,-1.12589809441193E-16,-3.36932255077983E-17));
#380=DIRECTION('ref_axis',(0.,-0.26009097340166,-0.965584116250354));
#381=DIRECTION('center_axis',(-1.,1.12589809441193E-16,3.36932255077983E-17));
#382=DIRECTION('ref_axis',(6.18172365082387E-17,0.26009097340166,0.965584116250354));
#383=DIRECTION('center_axis',(-1.,1.12589809441193E-16,3.36932255077983E-17));
#384=DIRECTION('ref_axis',(0.,0.26009097340166,0.965584116250354));
#385=DIRECTION('center_axis',(-1.,1.12589809441193E-16,3.36932255077983E-17));
#386=DIRECTION('ref_axis',(-9.99516278287055E-17,-0.965584116250354,0.26009097340166));
#387=DIRECTION('center_axis',(1.,-1.12589809441193E-16,-3.36932255077983E-17));
#388=DIRECTION('ref_axis',(-9.99516278287055E-17,-0.965584116250354,0.26009097340166));
#389=DIRECTION('center_axis',(-1.,1.12589809441193E-16,3.36932255077983E-17));
#390=DIRECTION('ref_axis',(9.99516278287055E-17,0.965584116250354,-0.26009097340166));
#391=DIRECTION('center_axis',(-1.,1.12589809441193E-16,3.36932255077983E-17));
#392=DIRECTION('ref_axis',(9.99516278287055E-17,0.965584116250354,-0.26009097340166));
#393=DIRECTION('center_axis',(-1.,1.12589809441193E-16,3.36932255077983E-17));
#394=DIRECTION('ref_axis',(6.18172365082387E-17,0.26009097340166,0.965584116250354));
#395=DIRECTION('center_axis',(-1.,1.12589809441193E-16,3.36932255077983E-17));
#396=DIRECTION('ref_axis',(0.,0.26009097340166,0.965584116250354));
#397=DIRECTION('center_axis',(-1.,1.12589809441193E-16,3.36932255077983E-17));
#398=DIRECTION('ref_axis',(-9.99516278287055E-17,-0.965584116250354,0.26009097340166));
#399=DIRECTION('center_axis',(1.,-1.12589809441193E-16,-3.36932255077983E-17));
#400=DIRECTION('ref_axis',(-9.99516278287055E-17,-0.965584116250354,0.26009097340166));
#401=DIRECTION('center_axis',(-1.,1.12589809441193E-16,3.36932255077983E-17));
#402=DIRECTION('ref_axis',(0.,0.26009097340166,0.965584116250354));
#403=DIRECTION('center_axis',(-1.,1.12589809441193E-16,3.36932255077983E-17));
#404=DIRECTION('ref_axis',(9.99516278287055E-17,0.965584116250354,-0.26009097340166));
#405=DIRECTION('center_axis',(-1.,1.12589809441193E-16,3.36932255077983E-17));
#406=DIRECTION('ref_axis',(6.18172365082387E-17,0.26009097340166,0.965584116250354));
#407=DIRECTION('center_axis',(-1.,1.12589809441193E-16,3.36932255077983E-17));
#408=DIRECTION('ref_axis',(0.,0.26009097340166,0.965584116250354));
#409=DIRECTION('center_axis',(-1.,1.12589809441193E-16,3.36932255077983E-17));
#410=DIRECTION('ref_axis',(-9.99516278287054E-17,-0.965584116250354,0.26009097340166));
#411=DIRECTION('center_axis',(1.,-1.12589809441193E-16,-3.36932255077983E-17));
#412=DIRECTION('ref_axis',(-9.99516278287055E-17,-0.965584116250354,0.26009097340166));
#413=DIRECTION('center_axis',(1.,-1.12589809441193E-16,-3.36932255077983E-17));
#414=DIRECTION('ref_axis',(9.99516278287055E-17,0.965584116250354,-0.26009097340166));
#415=DIRECTION('center_axis',(-1.,1.12589809441193E-16,3.36932255077983E-17));
#416=DIRECTION('ref_axis',(6.18172365082387E-17,0.26009097340166,0.965584116250354));
#417=DIRECTION('center_axis',(-1.,1.12589809441193E-16,3.36932255077983E-17));
#418=DIRECTION('ref_axis',(0.,0.26009097340166,0.965584116250354));
#419=DIRECTION('center_axis',(-1.,1.12589809441193E-16,3.36932255077983E-17));
#420=DIRECTION('ref_axis',(6.18172365082387E-17,0.26009097340166,0.965584116250354));
#421=DIRECTION('center_axis',(-1.,1.12589809441193E-16,3.36932255077983E-17));
#422=DIRECTION('ref_axis',(0.,0.26009097340166,0.965584116250354));
#423=DIRECTION('center_axis',(1.,0.,0.));
#424=DIRECTION('ref_axis',(0.,0.,-1.));
#425=DIRECTION('center_axis',(-1.,0.,0.));
#426=DIRECTION('ref_axis',(0.,0.,1.));
#427=DIRECTION('center_axis',(-1.,0.,0.));
#428=DIRECTION('ref_axis',(0.,0.,1.));
#429=DIRECTION('center_axis',(-1.,0.,0.));
#430=DIRECTION('ref_axis',(0.,0.,1.));
#431=DIRECTION('center_axis',(-1.,0.,0.));
#432=DIRECTION('ref_axis',(0.,1.,0.));
#433=DIRECTION('center_axis',(-1.,0.,0.));
#434=DIRECTION('ref_axis',(0.,0.,1.));
#435=DIRECTION('center_axis',(-1.,0.,0.));
#436=DIRECTION('ref_axis',(0.,1.,0.));
#437=DIRECTION('center_axis',(1.,0.,0.));
#438=DIRECTION('ref_axis',(0.,0.,-1.));
#439=DIRECTION('center_axis',(-1.,0.,0.));
#440=DIRECTION('ref_axis',(0.,0.,1.));
#441=DIRECTION('center_axis',(-1.,0.,0.));
#442=DIRECTION('ref_axis',(0.,0.,1.));
#443=DIRECTION('center_axis',(-1.,0.,0.));
#444=DIRECTION('ref_axis',(0.,1.,0.));
#445=DIRECTION('center_axis',(1.,0.,0.));
#446=DIRECTION('ref_axis',(0.,0.,-1.));
#447=DIRECTION('center_axis',(-1.,0.,0.));
#448=DIRECTION('ref_axis',(0.,0.,1.));
#449=DIRECTION('center_axis',(-1.,0.,0.));
#450=DIRECTION('ref_axis',(0.,0.,1.));
#451=DIRECTION('center_axis',(-1.,0.,0.));
#452=DIRECTION('ref_axis',(0.,1.,0.));
#453=DIRECTION('center_axis',(-1.,0.,0.));
#454=DIRECTION('ref_axis',(0.,1.,0.));
#455=DIRECTION('center_axis',(1.,0.,0.));
#456=DIRECTION('ref_axis',(0.,1.,0.));
#457=DIRECTION('center_axis',(-1.,0.,0.));
#458=DIRECTION('ref_axis',(0.,0.,1.));
#459=DIRECTION('center_axis',(1.,0.,0.));
#460=DIRECTION('ref_axis',(0.,0.,-1.));
#461=DIRECTION('center_axis',(1.,0.,0.));
#462=DIRECTION('ref_axis',(0.,1.,0.));
#463=DIRECTION('center_axis',(1.,0.,0.));
#464=DIRECTION('ref_axis',(0.,0.,-1.));
#465=DIRECTION('center_axis',(1.,0.,0.));
#466=DIRECTION('ref_axis',(0.,0.,-1.));
#467=DIRECTION('center_axis',(1.,0.,0.));
#468=DIRECTION('ref_axis',(0.,1.,0.));
#469=CARTESIAN_POINT('',(0.,0.,0.));
#470=CARTESIAN_POINT('Origin',(-46.,7.87969326931409E-15,3.70625480585782E-16));
#471=CARTESIAN_POINT('',(-46.,6.27629675562731,-1.69059132711079));
#472=CARTESIAN_POINT('Origin',(-46.,7.87969326931409E-15,3.70625480585782E-16));
#473=CARTESIAN_POINT('',(-48.,8.20746498812802,-2.21077327391411));
#474=CARTESIAN_POINT('Origin',(-48.,8.10487288819647E-15,4.38011931601379E-16));
#475=CARTESIAN_POINT('Origin',(-41.5,7.37303912682872E-15,2.1900596580069E-16));
#476=CARTESIAN_POINT('',(-35.,6.27629675562731,-1.69059132711079));
#477=CARTESIAN_POINT('Origin',(-35.,6.64120536546096E-15,4.00593428432545E-31));
#478=CARTESIAN_POINT('Origin',(-48.,10.7111507808949,-2.88516928351439));
#479=CARTESIAN_POINT('',(-48.,10.7111507808949,-2.88516928351439));
#480=CARTESIAN_POINT('Origin',(-48.,8.10487288819647E-15,4.38011931601379E-16));
#481=CARTESIAN_POINT('Origin',(-50.7101660305678,8.41000996513209E-15,5.29326166832873E-16));
#482=CARTESIAN_POINT('',(-49.958411933939,15.9066620575221,-4.28463885070733));
#483=CARTESIAN_POINT('Origin',(-49.958411933939,8.98126627139867E-15,2.93900249326163E-15));
#484=CARTESIAN_POINT('',(-50.7101660305678,16.414929976256,-4.42154654782822));
#485=CARTESIAN_POINT('Origin',(-50.7101660305678,8.41000996513209E-15,5.29326166832873E-16));
#486=CARTESIAN_POINT('Origin',(-49.075,8.22590693334576E-15,4.74232149022262E-16));
#487=CARTESIAN_POINT('Origin',(-51.575,8.50738145694874E-15,5.58465212791758E-16));
#488=CARTESIAN_POINT('',(-53.,16.414929976256,-4.42154654782822));
#489=CARTESIAN_POINT('Origin',(-53.,8.66782193540244E-15,6.0647805914037E-16));
#490=CARTESIAN_POINT('Origin',(-52.2,8.57775008784949E-15,5.79523478734132E-16));
#491=CARTESIAN_POINT('',(-53.,15.2107797922228,-4.09719511306852));
#492=CARTESIAN_POINT('Origin',(-53.,8.66782193540244E-15,6.0647805914037E-16));
#493=CARTESIAN_POINT('',(-52.5125849027914,14.4997198998828,-3.9056631103842));
#494=CARTESIAN_POINT('Origin',(-52.5125849027914,9.21082619082395E-15,2.8096849178448E-15));
#495=CARTESIAN_POINT('Origin',(-53.,14.69949484449,-3.95947474515501));
#496=CARTESIAN_POINT('Origin',(-52.5655613229064,8.61890856753459E-15,5.91840418823747E-16));
#497=CARTESIAN_POINT('',(-52.1311226458129,14.3433714369524,-3.8635488882993));
#498=CARTESIAN_POINT('Origin',(-52.1311226458129,8.56999519966674E-15,5.77202778507124E-16));
#499=CARTESIAN_POINT('Origin',(-52.2,8.57775008784949E-15,5.79523478734132E-16));
#500=CARTESIAN_POINT('',(-52.5125849027914,12.0538432970019,-3.24683865816144));
#501=CARTESIAN_POINT('Origin',(-52.5125849027914,9.10997278374713E-15,2.43526804874136E-15));
#502=CARTESIAN_POINT('',(-53.,11.3427834046619,-3.05530665547712));
#503=CARTESIAN_POINT('Origin',(-53.,8.66782193540244E-15,6.0647805914037E-16));
#504=CARTESIAN_POINT('Origin',(-52.5655613229064,8.61890856753459E-15,5.91840418823747E-16));
#505=CARTESIAN_POINT('',(-52.1311226458129,12.2101917599323,-3.28895288024635));
#506=CARTESIAN_POINT('Origin',(-52.1311226458129,8.56999519966674E-15,5.77202778507124E-16));
#507=CARTESIAN_POINT('Origin',(-53.,4.82792058125178,-1.3004548670083));
#508=CARTESIAN_POINT('',(-53.,4.82792058125178,-1.3004548670083));
#509=CARTESIAN_POINT('Origin',(-53.,8.66782193540244E-15,6.0647805914037E-16));
#510=CARTESIAN_POINT('Origin',(-52.6,8.62278601162596E-15,5.93000768937251E-16));
#511=CARTESIAN_POINT('Origin',(-18.,9.75,0.));
#512=CARTESIAN_POINT('',(-18.,7.48670736541742,0.));
#513=CARTESIAN_POINT('Origin',(-18.,0.,0.));
#514=CARTESIAN_POINT('',(-18.,6.75,0.));
#515=CARTESIAN_POINT('Origin',(-18.,0.,0.));
#516=CARTESIAN_POINT('Origin',(-24.,7.48670736541742,0.));
#517=CARTESIAN_POINT('',(-24.,-7.5,9.18485099360515E-16));
#518=CARTESIAN_POINT('Origin',(-24.,0.,0.));
#519=CARTESIAN_POINT('',(-24.,7.48670736541742,0.));
#520=CARTESIAN_POINT('Origin',(-24.,0.,0.));
#521=CARTESIAN_POINT('Origin',(-21.,0.,0.));
#522=CARTESIAN_POINT('Origin',(-12.,9.75,0.));
#523=CARTESIAN_POINT('',(-12.,7.48670736541742,0.));
#524=CARTESIAN_POINT('Origin',(-12.,0.,0.));
#525=CARTESIAN_POINT('',(-12.,6.75,0.));
#526=CARTESIAN_POINT('Origin',(-12.,0.,0.));
#527=CARTESIAN_POINT('Origin',(-15.,0.,0.));
#528=CARTESIAN_POINT('Origin',(-6.,9.75,0.));
#529=CARTESIAN_POINT('',(-6.,7.48670736541742,0.));
#530=CARTESIAN_POINT('Origin',(-6.,0.,0.));
#531=CARTESIAN_POINT('',(-6.,6.75,0.));
#532=CARTESIAN_POINT('Origin',(-6.,0.,0.));
#533=CARTESIAN_POINT('Origin',(-9.,0.,0.));
#534=CARTESIAN_POINT('Origin',(-3.,0.,0.));
#535=CARTESIAN_POINT('',(0.,6.75,0.));
#536=CARTESIAN_POINT('Origin',(-1.11022302462516E-15,0.,0.));
#537=CARTESIAN_POINT('Origin',(-35.,7.5,0.));
#538=CARTESIAN_POINT('',(-35.,7.5,0.));
#539=CARTESIAN_POINT('Origin',(-35.,0.,0.));
#540=CARTESIAN_POINT('Origin',(-17.5,0.,0.));
#541=CARTESIAN_POINT('Origin',(-9.18485099360515E-16,5.,0.));
#542=CARTESIAN_POINT('',(-9.18485099360515E-16,5.,0.));
#543=CARTESIAN_POINT('Origin',(0.,0.,0.));
#544=CARTESIAN_POINT('Origin',(-17.5,0.,0.));
#545=UNCERTAINTY_MEASURE_WITH_UNIT(LENGTH_MEASURE(0.01),#549,
'DISTANCE_ACCURACY_VALUE',
'Maximum model space distance between geometric entities at asserted c
onnectivities');
#546=UNCERTAINTY_MEASURE_WITH_UNIT(LENGTH_MEASURE(1.E-6),#549,
'DISTANCE_ACCURACY_VALUE',
'Maximum model space distance between geometric entities at asserted c
onnectivities');
#547=(
GEOMETRIC_REPRESENTATION_CONTEXT(3)
GLOBAL_UNCERTAINTY_ASSIGNED_CONTEXT((#545))
GLOBAL_UNIT_ASSIGNED_CONTEXT((#549,#552,#550))
REPRESENTATION_CONTEXT('','3D')
);
#548=(
GEOMETRIC_REPRESENTATION_CONTEXT(3)
GLOBAL_UNCERTAINTY_ASSIGNED_CONTEXT((#546))
GLOBAL_UNIT_ASSIGNED_CONTEXT((#549,#552,#550))
REPRESENTATION_CONTEXT('','3D')
);
#549=(
LENGTH_UNIT()
NAMED_UNIT(*)
SI_UNIT(.MILLI.,.METRE.)
);
#550=(
NAMED_UNIT(*)
SI_UNIT($,.STERADIAN.)
SOLID_ANGLE_UNIT()
);
#551=DIMENSIONAL_EXPONENTS(0.,0.,0.,0.,0.,0.,0.);
#552=(
CONVERSION_BASED_UNIT('degree',#554)
NAMED_UNIT(#551)
PLANE_ANGLE_UNIT()
);
#553=(
NAMED_UNIT(*)
PLANE_ANGLE_UNIT()
SI_UNIT($,.RADIAN.)
);
#554=PLANE_ANGLE_MEASURE_WITH_UNIT(PLANE_ANGLE_MEASURE(0.01745329252),#553);
#555=SHAPE_DEFINITION_REPRESENTATION(#556,#557);
#556=PRODUCT_DEFINITION_SHAPE('',$,#559);
#557=SHAPE_REPRESENTATION('',(#316),#547);
#558=DESIGN_CONTEXT('part definition',#563,'design');
#559=PRODUCT_DEFINITION('26070010000','26070010000',#560,#558);
#560=PRODUCT_DEFINITION_FORMATION('',$,#565);
#561=PRODUCT_RELATED_PRODUCT_CATEGORY('26070010000','26070010000',(#565));
#562=APPLICATION_PROTOCOL_DEFINITION('international standard',
'ap203_configuration_controlled_3d_design_of_mechanical_parts_and_asse
mblies_mim_lf',2004,#563);
#563=APPLICATION_CONTEXT(
'Configuration Controlled 3D Design of Mechanical Parts and Assemblies');
#564=MECHANICAL_CONTEXT('part definition',#563,'mechanical');
#565=PRODUCT('26070010000','26070010000',$,(#564));
#566=PRESENTATION_STYLE_ASSIGNMENT((#567));
#567=SURFACE_STYLE_USAGE(.BOTH.,#568);
#568=SURFACE_SIDE_STYLE($,(#569));
#569=SURFACE_STYLE_FILL_AREA(#570);
#570=FILL_AREA_STYLE($,(#571));
#571=FILL_AREA_STYLE_COLOUR($,#572);
#572=COLOUR_RGB('',0.745098039215686,0.737254901960784,0.729411764705882);
ENDSEC;
END-ISO-10303-21;
