ISO-10303-21;
HEADER;
/* Generated by software containing ST-Developer
 * from STEP Tools, Inc. (www.steptools.com) 
 */

FILE_DESCRIPTION(
/* description */ (''),
/* implementation_level */ '2;1');

FILE_NAME(
/* name */ 
'C:\\Vault_Workspace\\DATA\\Katalog Bupospol\\2 Potrubn\X\ED d\X\EDly\\
2.6 Hadicov\X\E9 n\X\E1stavce\\26070\\26070\\26070015000.stp',
/* time_stamp */ '2016-03-08T11:58:49+01:00',
/* author */ ('Struska'),
/* organization */ ('BUPOSPOL'),
/* preprocessor_version */ 'ST-DEVELOPER v15.6',
/* originating_system */ 'Autodesk Inventor 2015',
/* authorisation */ '');

FILE_SCHEMA (('CONFIG_CONTROL_DESIGN'));
ENDSEC;

DATA;
#10=MECHANICAL_DESIGN_GEOMETRIC_PRESENTATION_REPRESENTATION('',(#283,#289,
#298,#274,#299,#278,#285,#293,#288,#300,#284,#282,#294,#276,#296,#281,#291,
#292,#287,#297,#275,#295,#286,#277,#280,#290,#279),#569);
#11=SHAPE_REPRESENTATION_RELATIONSHIP('SRR','None',#578,#12);
#12=ADVANCED_BREP_SHAPE_REPRESENTATION($,(#13),#568);
#13=MANIFOLD_SOLID_BREP('T\X2\011B\X0\leso1',#327);
#14=PLANE('',#343);
#15=PLANE('',#351);
#16=PLANE('',#354);
#17=PLANE('',#357);
#18=PLANE('',#361);
#19=PLANE('',#365);
#20=PLANE('',#369);
#21=PLANE('',#375);
#22=PLANE('',#378);
#23=CONICAL_SURFACE('',#337,14.0464617740863,70.);
#24=CONICAL_SURFACE('',#344,15.0390141017566,22.9999999999998);
#25=CONICAL_SURFACE('',#349,12.4609858982434,23.);
#26=CONICAL_SURFACE('',#360,10.0408174517712,10.);
#27=CONICAL_SURFACE('',#364,10.0408174517712,10.);
#28=CONICAL_SURFACE('',#368,10.0408174517712,10.);
#29=CONICAL_SURFACE('',#372,10.0408174517712,10.);
#30=CONICAL_SURFACE('',#373,10.0408174517712,10.);
#31=CYLINDRICAL_SURFACE('',#332,9.5);
#32=CYLINDRICAL_SURFACE('',#338,17.);
#33=CYLINDRICAL_SURFACE('',#377,10.5);
#34=CYLINDRICAL_SURFACE('',#380,8.);
#35=FACE_BOUND('',#88,.T.);
#36=FACE_BOUND('',#90,.T.);
#37=FACE_BOUND('',#92,.T.);
#38=FACE_BOUND('',#94,.T.);
#39=FACE_BOUND('',#96,.T.);
#40=FACE_BOUND('',#98,.T.);
#41=FACE_BOUND('',#100,.T.);
#42=FACE_BOUND('',#102,.T.);
#43=FACE_BOUND('',#104,.T.);
#44=FACE_BOUND('',#106,.T.);
#45=FACE_BOUND('',#108,.T.);
#46=FACE_BOUND('',#110,.T.);
#47=FACE_BOUND('',#112,.T.);
#48=FACE_BOUND('',#114,.T.);
#49=FACE_BOUND('',#116,.T.);
#50=FACE_BOUND('',#118,.T.);
#51=FACE_BOUND('',#120,.T.);
#52=FACE_BOUND('',#122,.T.);
#53=FACE_BOUND('',#124,.T.);
#54=FACE_BOUND('',#126,.T.);
#55=FACE_BOUND('',#128,.T.);
#56=FACE_BOUND('',#130,.T.);
#57=FACE_BOUND('',#132,.T.);
#58=FACE_BOUND('',#134,.T.);
#59=FACE_BOUND('',#136,.T.);
#60=FACE_BOUND('',#138,.T.);
#61=FACE_OUTER_BOUND('',#87,.T.);
#62=FACE_OUTER_BOUND('',#89,.T.);
#63=FACE_OUTER_BOUND('',#91,.T.);
#64=FACE_OUTER_BOUND('',#93,.T.);
#65=FACE_OUTER_BOUND('',#95,.T.);
#66=FACE_OUTER_BOUND('',#97,.T.);
#67=FACE_OUTER_BOUND('',#99,.T.);
#68=FACE_OUTER_BOUND('',#101,.T.);
#69=FACE_OUTER_BOUND('',#103,.T.);
#70=FACE_OUTER_BOUND('',#105,.T.);
#71=FACE_OUTER_BOUND('',#107,.T.);
#72=FACE_OUTER_BOUND('',#109,.T.);
#73=FACE_OUTER_BOUND('',#111,.T.);
#74=FACE_OUTER_BOUND('',#113,.T.);
#75=FACE_OUTER_BOUND('',#115,.T.);
#76=FACE_OUTER_BOUND('',#117,.T.);
#77=FACE_OUTER_BOUND('',#119,.T.);
#78=FACE_OUTER_BOUND('',#121,.T.);
#79=FACE_OUTER_BOUND('',#123,.T.);
#80=FACE_OUTER_BOUND('',#125,.T.);
#81=FACE_OUTER_BOUND('',#127,.T.);
#82=FACE_OUTER_BOUND('',#129,.T.);
#83=FACE_OUTER_BOUND('',#131,.T.);
#84=FACE_OUTER_BOUND('',#133,.T.);
#85=FACE_OUTER_BOUND('',#135,.T.);
#86=FACE_OUTER_BOUND('',#137,.T.);
#87=EDGE_LOOP('',(#217));
#88=EDGE_LOOP('',(#218));
#89=EDGE_LOOP('',(#219));
#90=EDGE_LOOP('',(#220));
#91=EDGE_LOOP('',(#221));
#92=EDGE_LOOP('',(#222));
#93=EDGE_LOOP('',(#223));
#94=EDGE_LOOP('',(#224));
#95=EDGE_LOOP('',(#225));
#96=EDGE_LOOP('',(#226));
#97=EDGE_LOOP('',(#227));
#98=EDGE_LOOP('',(#228));
#99=EDGE_LOOP('',(#229));
#100=EDGE_LOOP('',(#230));
#101=EDGE_LOOP('',(#231));
#102=EDGE_LOOP('',(#232));
#103=EDGE_LOOP('',(#233));
#104=EDGE_LOOP('',(#234));
#105=EDGE_LOOP('',(#235));
#106=EDGE_LOOP('',(#236));
#107=EDGE_LOOP('',(#237));
#108=EDGE_LOOP('',(#238));
#109=EDGE_LOOP('',(#239));
#110=EDGE_LOOP('',(#240));
#111=EDGE_LOOP('',(#241));
#112=EDGE_LOOP('',(#242));
#113=EDGE_LOOP('',(#243));
#114=EDGE_LOOP('',(#244));
#115=EDGE_LOOP('',(#245));
#116=EDGE_LOOP('',(#246));
#117=EDGE_LOOP('',(#247));
#118=EDGE_LOOP('',(#248));
#119=EDGE_LOOP('',(#249));
#120=EDGE_LOOP('',(#250));
#121=EDGE_LOOP('',(#251));
#122=EDGE_LOOP('',(#252));
#123=EDGE_LOOP('',(#253));
#124=EDGE_LOOP('',(#254));
#125=EDGE_LOOP('',(#255));
#126=EDGE_LOOP('',(#256));
#127=EDGE_LOOP('',(#257));
#128=EDGE_LOOP('',(#258));
#129=EDGE_LOOP('',(#259));
#130=EDGE_LOOP('',(#260));
#131=EDGE_LOOP('',(#261));
#132=EDGE_LOOP('',(#262));
#133=EDGE_LOOP('',(#263));
#134=EDGE_LOOP('',(#264));
#135=EDGE_LOOP('',(#265));
#136=EDGE_LOOP('',(#266));
#137=EDGE_LOOP('',(#267));
#138=EDGE_LOOP('',(#268));
#139=CIRCLE('',#330,9.5);
#140=CIRCLE('',#331,11.0929235481725);
#141=CIRCLE('',#333,9.5);
#142=CIRCLE('',#335,16.4736161146605);
#143=CIRCLE('',#336,17.);
#144=CIRCLE('',#339,17.);
#145=CIRCLE('',#341,15.7529308283267);
#146=CIRCLE('',#342,15.0165269455648);
#147=CIRCLE('',#345,14.8546058241429);
#148=CIRCLE('',#347,12.4834730544352);
#149=CIRCLE('',#348,11.7470691716732);
#150=CIRCLE('',#350,12.6453941758571);
#151=CIRCLE('',#352,8.);
#152=CIRCLE('',#355,10.4816349035423);
#153=CIRCLE('',#356,9.6);
#154=CIRCLE('',#358,10.5);
#155=CIRCLE('',#359,10.4816349035423);
#156=CIRCLE('',#362,10.4816349035423);
#157=CIRCLE('',#363,9.6);
#158=CIRCLE('',#366,10.4816349035423);
#159=CIRCLE('',#367,9.6);
#160=CIRCLE('',#370,10.4816349035423);
#161=CIRCLE('',#371,9.6);
#162=CIRCLE('',#374,9.6);
#163=CIRCLE('',#376,10.5);
#164=CIRCLE('',#379,8.);
#165=VERTEX_POINT('',#489);
#166=VERTEX_POINT('',#491);
#167=VERTEX_POINT('',#494);
#168=VERTEX_POINT('',#497);
#169=VERTEX_POINT('',#499);
#170=VERTEX_POINT('',#503);
#171=VERTEX_POINT('',#506);
#172=VERTEX_POINT('',#508);
#173=VERTEX_POINT('',#512);
#174=VERTEX_POINT('',#515);
#175=VERTEX_POINT('',#517);
#176=VERTEX_POINT('',#520);
#177=VERTEX_POINT('',#523);
#178=VERTEX_POINT('',#527);
#179=VERTEX_POINT('',#529);
#180=VERTEX_POINT('',#532);
#181=VERTEX_POINT('',#534);
#182=VERTEX_POINT('',#538);
#183=VERTEX_POINT('',#540);
#184=VERTEX_POINT('',#544);
#185=VERTEX_POINT('',#546);
#186=VERTEX_POINT('',#550);
#187=VERTEX_POINT('',#552);
#188=VERTEX_POINT('',#556);
#189=VERTEX_POINT('',#559);
#190=VERTEX_POINT('',#563);
#191=EDGE_CURVE('',#165,#165,#139,.T.);
#192=EDGE_CURVE('',#166,#166,#140,.T.);
#193=EDGE_CURVE('',#167,#167,#141,.T.);
#194=EDGE_CURVE('',#168,#168,#142,.T.);
#195=EDGE_CURVE('',#169,#169,#143,.T.);
#196=EDGE_CURVE('',#170,#170,#144,.T.);
#197=EDGE_CURVE('',#171,#171,#145,.T.);
#198=EDGE_CURVE('',#172,#172,#146,.T.);
#199=EDGE_CURVE('',#173,#173,#147,.T.);
#200=EDGE_CURVE('',#174,#174,#148,.T.);
#201=EDGE_CURVE('',#175,#175,#149,.T.);
#202=EDGE_CURVE('',#176,#176,#150,.T.);
#203=EDGE_CURVE('',#177,#177,#151,.T.);
#204=EDGE_CURVE('',#178,#178,#152,.T.);
#205=EDGE_CURVE('',#179,#179,#153,.T.);
#206=EDGE_CURVE('',#180,#180,#154,.T.);
#207=EDGE_CURVE('',#181,#181,#155,.T.);
#208=EDGE_CURVE('',#182,#182,#156,.T.);
#209=EDGE_CURVE('',#183,#183,#157,.T.);
#210=EDGE_CURVE('',#184,#184,#158,.T.);
#211=EDGE_CURVE('',#185,#185,#159,.T.);
#212=EDGE_CURVE('',#186,#186,#160,.T.);
#213=EDGE_CURVE('',#187,#187,#161,.T.);
#214=EDGE_CURVE('',#188,#188,#162,.T.);
#215=EDGE_CURVE('',#189,#189,#163,.T.);
#216=EDGE_CURVE('',#190,#190,#164,.T.);
#217=ORIENTED_EDGE('',*,*,#191,.T.);
#218=ORIENTED_EDGE('',*,*,#192,.F.);
#219=ORIENTED_EDGE('',*,*,#193,.F.);
#220=ORIENTED_EDGE('',*,*,#191,.F.);
#221=ORIENTED_EDGE('',*,*,#194,.T.);
#222=ORIENTED_EDGE('',*,*,#195,.T.);
#223=ORIENTED_EDGE('',*,*,#192,.T.);
#224=ORIENTED_EDGE('',*,*,#194,.F.);
#225=ORIENTED_EDGE('',*,*,#196,.F.);
#226=ORIENTED_EDGE('',*,*,#195,.F.);
#227=ORIENTED_EDGE('',*,*,#197,.T.);
#228=ORIENTED_EDGE('',*,*,#198,.T.);
#229=ORIENTED_EDGE('',*,*,#196,.T.);
#230=ORIENTED_EDGE('',*,*,#197,.F.);
#231=ORIENTED_EDGE('',*,*,#199,.F.);
#232=ORIENTED_EDGE('',*,*,#198,.F.);
#233=ORIENTED_EDGE('',*,*,#200,.T.);
#234=ORIENTED_EDGE('',*,*,#201,.T.);
#235=ORIENTED_EDGE('',*,*,#202,.T.);
#236=ORIENTED_EDGE('',*,*,#200,.F.);
#237=ORIENTED_EDGE('',*,*,#201,.F.);
#238=ORIENTED_EDGE('',*,*,#203,.F.);
#239=ORIENTED_EDGE('',*,*,#199,.T.);
#240=ORIENTED_EDGE('',*,*,#202,.F.);
#241=ORIENTED_EDGE('',*,*,#204,.T.);
#242=ORIENTED_EDGE('',*,*,#205,.F.);
#243=ORIENTED_EDGE('',*,*,#206,.F.);
#244=ORIENTED_EDGE('',*,*,#207,.T.);
#245=ORIENTED_EDGE('',*,*,#205,.T.);
#246=ORIENTED_EDGE('',*,*,#207,.F.);
#247=ORIENTED_EDGE('',*,*,#208,.T.);
#248=ORIENTED_EDGE('',*,*,#209,.F.);
#249=ORIENTED_EDGE('',*,*,#209,.T.);
#250=ORIENTED_EDGE('',*,*,#204,.F.);
#251=ORIENTED_EDGE('',*,*,#210,.T.);
#252=ORIENTED_EDGE('',*,*,#211,.F.);
#253=ORIENTED_EDGE('',*,*,#211,.T.);
#254=ORIENTED_EDGE('',*,*,#208,.F.);
#255=ORIENTED_EDGE('',*,*,#212,.T.);
#256=ORIENTED_EDGE('',*,*,#213,.F.);
#257=ORIENTED_EDGE('',*,*,#213,.T.);
#258=ORIENTED_EDGE('',*,*,#210,.F.);
#259=ORIENTED_EDGE('',*,*,#214,.F.);
#260=ORIENTED_EDGE('',*,*,#212,.F.);
#261=ORIENTED_EDGE('',*,*,#215,.F.);
#262=ORIENTED_EDGE('',*,*,#193,.T.);
#263=ORIENTED_EDGE('',*,*,#206,.T.);
#264=ORIENTED_EDGE('',*,*,#215,.T.);
#265=ORIENTED_EDGE('',*,*,#214,.T.);
#266=ORIENTED_EDGE('',*,*,#216,.F.);
#267=ORIENTED_EDGE('',*,*,#203,.T.);
#268=ORIENTED_EDGE('',*,*,#216,.T.);
#269=TOROIDAL_SURFACE('',#329,11.5,2.);
#270=TOROIDAL_SURFACE('',#334,16.2,0.8);
#271=TOROIDAL_SURFACE('',#340,15.7529308283268,0.8);
#272=TOROIDAL_SURFACE('',#346,11.7470691716732,0.8);
#273=TOROIDAL_SURFACE('',#353,13.75,1.2);
#274=STYLED_ITEM('',(#587),#301);
#275=STYLED_ITEM('',(#587),#302);
#276=STYLED_ITEM('',(#587),#303);
#277=STYLED_ITEM('',(#587),#304);
#278=STYLED_ITEM('',(#587),#305);
#279=STYLED_ITEM('',(#587),#306);
#280=STYLED_ITEM('',(#587),#307);
#281=STYLED_ITEM('',(#587),#308);
#282=STYLED_ITEM('',(#587),#309);
#283=STYLED_ITEM('',(#587),#310);
#284=STYLED_ITEM('',(#587),#311);
#285=STYLED_ITEM('',(#587),#312);
#286=STYLED_ITEM('',(#587),#313);
#287=STYLED_ITEM('',(#587),#314);
#288=STYLED_ITEM('',(#587),#315);
#289=STYLED_ITEM('',(#587),#316);
#290=STYLED_ITEM('',(#587),#317);
#291=STYLED_ITEM('',(#587),#318);
#292=STYLED_ITEM('',(#587),#319);
#293=STYLED_ITEM('',(#587),#320);
#294=STYLED_ITEM('',(#587),#321);
#295=STYLED_ITEM('',(#587),#322);
#296=STYLED_ITEM('',(#587),#323);
#297=STYLED_ITEM('',(#587),#324);
#298=STYLED_ITEM('',(#587),#325);
#299=STYLED_ITEM('',(#587),#326);
#300=STYLED_ITEM('',(#587),#13);
#301=ADVANCED_FACE('',(#61,#35),#269,.F.);
#302=ADVANCED_FACE('',(#62,#36),#31,.T.);
#303=ADVANCED_FACE('',(#63,#37),#270,.T.);
#304=ADVANCED_FACE('',(#64,#38),#23,.T.);
#305=ADVANCED_FACE('',(#65,#39),#32,.T.);
#306=ADVANCED_FACE('',(#66,#40),#271,.T.);
#307=ADVANCED_FACE('',(#67,#41),#14,.T.);
#308=ADVANCED_FACE('',(#68,#42),#24,.F.);
#309=ADVANCED_FACE('',(#69,#43),#272,.T.);
#310=ADVANCED_FACE('',(#70,#44),#25,.T.);
#311=ADVANCED_FACE('',(#71,#45),#15,.T.);
#312=ADVANCED_FACE('',(#72,#46),#273,.F.);
#313=ADVANCED_FACE('',(#73,#47),#16,.F.);
#314=ADVANCED_FACE('',(#74,#48),#17,.F.);
#315=ADVANCED_FACE('',(#75,#49),#26,.T.);
#316=ADVANCED_FACE('',(#76,#50),#18,.F.);
#317=ADVANCED_FACE('',(#77,#51),#27,.T.);
#318=ADVANCED_FACE('',(#78,#52),#19,.F.);
#319=ADVANCED_FACE('',(#79,#53),#28,.T.);
#320=ADVANCED_FACE('',(#80,#54),#20,.F.);
#321=ADVANCED_FACE('',(#81,#55),#29,.T.);
#322=ADVANCED_FACE('',(#82,#56),#30,.T.);
#323=ADVANCED_FACE('',(#83,#57),#21,.T.);
#324=ADVANCED_FACE('',(#84,#58),#33,.T.);
#325=ADVANCED_FACE('',(#85,#59),#22,.T.);
#326=ADVANCED_FACE('',(#86,#60),#34,.F.);
#327=CLOSED_SHELL('',(#301,#302,#303,#304,#305,#306,#307,#308,#309,#310,
#311,#312,#313,#314,#315,#316,#317,#318,#319,#320,#321,#322,#323,#324,#325,
#326));
#328=AXIS2_PLACEMENT_3D('placement',#487,#381,#382);
#329=AXIS2_PLACEMENT_3D('',#488,#383,#384);
#330=AXIS2_PLACEMENT_3D('',#490,#385,#386);
#331=AXIS2_PLACEMENT_3D('',#492,#387,#388);
#332=AXIS2_PLACEMENT_3D('',#493,#389,#390);
#333=AXIS2_PLACEMENT_3D('',#495,#391,#392);
#334=AXIS2_PLACEMENT_3D('',#496,#393,#394);
#335=AXIS2_PLACEMENT_3D('',#498,#395,#396);
#336=AXIS2_PLACEMENT_3D('',#500,#397,#398);
#337=AXIS2_PLACEMENT_3D('',#501,#399,#400);
#338=AXIS2_PLACEMENT_3D('',#502,#401,#402);
#339=AXIS2_PLACEMENT_3D('',#504,#403,#404);
#340=AXIS2_PLACEMENT_3D('',#505,#405,#406);
#341=AXIS2_PLACEMENT_3D('',#507,#407,#408);
#342=AXIS2_PLACEMENT_3D('',#509,#409,#410);
#343=AXIS2_PLACEMENT_3D('',#510,#411,#412);
#344=AXIS2_PLACEMENT_3D('',#511,#413,#414);
#345=AXIS2_PLACEMENT_3D('',#513,#415,#416);
#346=AXIS2_PLACEMENT_3D('',#514,#417,#418);
#347=AXIS2_PLACEMENT_3D('',#516,#419,#420);
#348=AXIS2_PLACEMENT_3D('',#518,#421,#422);
#349=AXIS2_PLACEMENT_3D('',#519,#423,#424);
#350=AXIS2_PLACEMENT_3D('',#521,#425,#426);
#351=AXIS2_PLACEMENT_3D('',#522,#427,#428);
#352=AXIS2_PLACEMENT_3D('',#524,#429,#430);
#353=AXIS2_PLACEMENT_3D('',#525,#431,#432);
#354=AXIS2_PLACEMENT_3D('',#526,#433,#434);
#355=AXIS2_PLACEMENT_3D('',#528,#435,#436);
#356=AXIS2_PLACEMENT_3D('',#530,#437,#438);
#357=AXIS2_PLACEMENT_3D('',#531,#439,#440);
#358=AXIS2_PLACEMENT_3D('',#533,#441,#442);
#359=AXIS2_PLACEMENT_3D('',#535,#443,#444);
#360=AXIS2_PLACEMENT_3D('',#536,#445,#446);
#361=AXIS2_PLACEMENT_3D('',#537,#447,#448);
#362=AXIS2_PLACEMENT_3D('',#539,#449,#450);
#363=AXIS2_PLACEMENT_3D('',#541,#451,#452);
#364=AXIS2_PLACEMENT_3D('',#542,#453,#454);
#365=AXIS2_PLACEMENT_3D('',#543,#455,#456);
#366=AXIS2_PLACEMENT_3D('',#545,#457,#458);
#367=AXIS2_PLACEMENT_3D('',#547,#459,#460);
#368=AXIS2_PLACEMENT_3D('',#548,#461,#462);
#369=AXIS2_PLACEMENT_3D('',#549,#463,#464);
#370=AXIS2_PLACEMENT_3D('',#551,#465,#466);
#371=AXIS2_PLACEMENT_3D('',#553,#467,#468);
#372=AXIS2_PLACEMENT_3D('',#554,#469,#470);
#373=AXIS2_PLACEMENT_3D('',#555,#471,#472);
#374=AXIS2_PLACEMENT_3D('',#557,#473,#474);
#375=AXIS2_PLACEMENT_3D('',#558,#475,#476);
#376=AXIS2_PLACEMENT_3D('',#560,#477,#478);
#377=AXIS2_PLACEMENT_3D('',#561,#479,#480);
#378=AXIS2_PLACEMENT_3D('',#562,#481,#482);
#379=AXIS2_PLACEMENT_3D('',#564,#483,#484);
#380=AXIS2_PLACEMENT_3D('',#565,#485,#486);
#381=DIRECTION('axis',(0.,0.,1.));
#382=DIRECTION('refdir',(1.,0.,0.));
#383=DIRECTION('center_axis',(-1.,1.12589809441193E-16,3.36932255077983E-17));
#384=DIRECTION('ref_axis',(0.,0.965584116250354,-0.26009097340166));
#385=DIRECTION('center_axis',(-1.,1.12589809441193E-16,3.36932255077983E-17));
#386=DIRECTION('ref_axis',(9.99516278287055E-17,0.965584116250354,-0.26009097340166));
#387=DIRECTION('center_axis',(-1.,1.12589809441193E-16,3.36932255077983E-17));
#388=DIRECTION('ref_axis',(6.18172365082387E-17,0.26009097340166,0.965584116250354));
#389=DIRECTION('center_axis',(-1.,1.12589809441193E-16,3.36932255077983E-17));
#390=DIRECTION('ref_axis',(9.99516278287055E-17,0.965584116250354,-0.26009097340166));
#391=DIRECTION('center_axis',(1.,0.,0.));
#392=DIRECTION('ref_axis',(9.99516278287055E-17,0.965584116250354,-0.26009097340166));
#393=DIRECTION('center_axis',(-1.,1.12589809441193E-16,3.36932255077983E-17));
#394=DIRECTION('ref_axis',(0.,0.26009097340166,0.965584116250354));
#395=DIRECTION('center_axis',(-1.,1.12589809441193E-16,3.36932255077983E-17));
#396=DIRECTION('ref_axis',(-9.99516278287055E-17,-0.965584116250354,0.26009097340166));
#397=DIRECTION('center_axis',(1.,-1.12589809441193E-16,-3.36932255077983E-17));
#398=DIRECTION('ref_axis',(-9.99516278287055E-17,-0.965584116250354,0.26009097340166));
#399=DIRECTION('center_axis',(-1.,1.12589809441193E-16,3.36932255077983E-17));
#400=DIRECTION('ref_axis',(9.99516278287055E-17,0.965584116250354,-0.26009097340166));
#401=DIRECTION('center_axis',(-1.,1.12589809441193E-16,3.36932255077983E-17));
#402=DIRECTION('ref_axis',(9.99516278287055E-17,0.965584116250354,-0.26009097340166));
#403=DIRECTION('center_axis',(-1.,1.12589809441193E-16,3.36932255077983E-17));
#404=DIRECTION('ref_axis',(6.18172365082387E-17,0.26009097340166,0.965584116250354));
#405=DIRECTION('center_axis',(-1.,1.12589809441193E-16,3.36932255077983E-17));
#406=DIRECTION('ref_axis',(0.,0.26009097340166,0.965584116250354));
#407=DIRECTION('center_axis',(-1.,1.12589809441193E-16,3.36932255077983E-17));
#408=DIRECTION('ref_axis',(-9.99516278287055E-17,-0.965584116250354,0.26009097340166));
#409=DIRECTION('center_axis',(1.,-1.12589809441193E-16,-3.36932255077983E-17));
#410=DIRECTION('ref_axis',(-9.99516278287055E-17,-0.965584116250354,0.26009097340166));
#411=DIRECTION('center_axis',(-1.,1.12589809441193E-16,3.36932255077983E-17));
#412=DIRECTION('ref_axis',(0.,0.26009097340166,0.965584116250354));
#413=DIRECTION('center_axis',(-1.,1.12589809441193E-16,3.36932255077983E-17));
#414=DIRECTION('ref_axis',(9.99516278287055E-17,0.965584116250354,-0.26009097340166));
#415=DIRECTION('center_axis',(-1.,1.12589809441193E-16,3.36932255077983E-17));
#416=DIRECTION('ref_axis',(6.18172365082387E-17,0.26009097340166,0.965584116250354));
#417=DIRECTION('center_axis',(-1.,1.12589809441193E-16,3.36932255077983E-17));
#418=DIRECTION('ref_axis',(0.,0.26009097340166,0.965584116250354));
#419=DIRECTION('center_axis',(-1.,1.12589809441193E-16,3.36932255077983E-17));
#420=DIRECTION('ref_axis',(-9.99516278287054E-17,-0.965584116250354,0.26009097340166));
#421=DIRECTION('center_axis',(1.,-1.12589809441193E-16,-3.36932255077983E-17));
#422=DIRECTION('ref_axis',(-9.99516278287055E-17,-0.965584116250354,0.26009097340166));
#423=DIRECTION('center_axis',(1.,-1.12589809441193E-16,-3.36932255077983E-17));
#424=DIRECTION('ref_axis',(9.99516278287055E-17,0.965584116250354,-0.26009097340166));
#425=DIRECTION('center_axis',(-1.,1.12589809441193E-16,3.36932255077983E-17));
#426=DIRECTION('ref_axis',(6.18172365082387E-17,0.26009097340166,0.965584116250354));
#427=DIRECTION('center_axis',(-1.,1.12589809441193E-16,3.36932255077983E-17));
#428=DIRECTION('ref_axis',(0.,0.26009097340166,0.965584116250354));
#429=DIRECTION('center_axis',(-1.,1.12589809441193E-16,3.36932255077983E-17));
#430=DIRECTION('ref_axis',(6.18172365082387E-17,0.26009097340166,0.965584116250354));
#431=DIRECTION('center_axis',(-1.,1.12589809441193E-16,3.36932255077983E-17));
#432=DIRECTION('ref_axis',(0.,0.26009097340166,0.965584116250354));
#433=DIRECTION('center_axis',(1.,0.,0.));
#434=DIRECTION('ref_axis',(0.,0.,-1.));
#435=DIRECTION('center_axis',(-1.,0.,0.));
#436=DIRECTION('ref_axis',(0.,0.,1.));
#437=DIRECTION('center_axis',(-1.,0.,0.));
#438=DIRECTION('ref_axis',(0.,0.,1.));
#439=DIRECTION('center_axis',(-1.,0.,0.));
#440=DIRECTION('ref_axis',(0.,0.,1.));
#441=DIRECTION('center_axis',(-1.,0.,0.));
#442=DIRECTION('ref_axis',(0.,1.,0.));
#443=DIRECTION('center_axis',(-1.,0.,0.));
#444=DIRECTION('ref_axis',(0.,0.,1.));
#445=DIRECTION('center_axis',(-1.,0.,0.));
#446=DIRECTION('ref_axis',(0.,1.,0.));
#447=DIRECTION('center_axis',(1.,0.,0.));
#448=DIRECTION('ref_axis',(0.,0.,-1.));
#449=DIRECTION('center_axis',(-1.,0.,0.));
#450=DIRECTION('ref_axis',(0.,0.,1.));
#451=DIRECTION('center_axis',(-1.,0.,0.));
#452=DIRECTION('ref_axis',(0.,0.,1.));
#453=DIRECTION('center_axis',(-1.,0.,0.));
#454=DIRECTION('ref_axis',(0.,1.,0.));
#455=DIRECTION('center_axis',(1.,0.,0.));
#456=DIRECTION('ref_axis',(0.,0.,-1.));
#457=DIRECTION('center_axis',(-1.,0.,0.));
#458=DIRECTION('ref_axis',(0.,0.,1.));
#459=DIRECTION('center_axis',(-1.,0.,0.));
#460=DIRECTION('ref_axis',(0.,0.,1.));
#461=DIRECTION('center_axis',(-1.,0.,0.));
#462=DIRECTION('ref_axis',(0.,1.,0.));
#463=DIRECTION('center_axis',(1.,0.,0.));
#464=DIRECTION('ref_axis',(0.,0.,-1.));
#465=DIRECTION('center_axis',(-1.,0.,0.));
#466=DIRECTION('ref_axis',(0.,0.,1.));
#467=DIRECTION('center_axis',(-1.,0.,0.));
#468=DIRECTION('ref_axis',(0.,0.,1.));
#469=DIRECTION('center_axis',(-1.,0.,0.));
#470=DIRECTION('ref_axis',(0.,1.,0.));
#471=DIRECTION('center_axis',(-1.,0.,0.));
#472=DIRECTION('ref_axis',(0.,1.,0.));
#473=DIRECTION('center_axis',(1.,0.,0.));
#474=DIRECTION('ref_axis',(0.,1.,0.));
#475=DIRECTION('center_axis',(-1.,0.,0.));
#476=DIRECTION('ref_axis',(0.,0.,1.));
#477=DIRECTION('center_axis',(1.,0.,0.));
#478=DIRECTION('ref_axis',(0.,0.,-1.));
#479=DIRECTION('center_axis',(1.,0.,0.));
#480=DIRECTION('ref_axis',(0.,1.,0.));
#481=DIRECTION('center_axis',(1.,0.,0.));
#482=DIRECTION('ref_axis',(0.,0.,-1.));
#483=DIRECTION('center_axis',(1.,0.,0.));
#484=DIRECTION('ref_axis',(0.,0.,-1.));
#485=DIRECTION('center_axis',(1.,0.,0.));
#486=DIRECTION('ref_axis',(0.,1.,0.));
#487=CARTESIAN_POINT('',(0.,0.,0.));
#488=CARTESIAN_POINT('Origin',(-56.0418659998949,9.78189420153888E-15,3.72036081161351E-16));
#489=CARTESIAN_POINT('',(-56.0418659998949,-9.17304910437835,2.47086424731577));
#490=CARTESIAN_POINT('Origin',(-56.0418659998949,9.78189420153888E-15,3.72036081161351E-16));
#491=CARTESIAN_POINT('',(-58.,10.7111507808949,-2.88516928351439));
#492=CARTESIAN_POINT('Origin',(-58.,1.0002360135471E-14,4.38011931601379E-16));
#493=CARTESIAN_POINT('Origin',(-51.5,9.27052637410328E-15,2.1900596580069E-16));
#494=CARTESIAN_POINT('',(-45.,9.17304910437837,-2.47086424731577));
#495=CARTESIAN_POINT('Origin',(-45.,8.53869261273552E-15,4.00593428432545E-31));
#496=CARTESIAN_POINT('Origin',(-60.7101660305678,1.03074972124067E-14,5.29326166832873E-16));
#497=CARTESIAN_POINT('',(-59.958411933939,15.9066620575221,-4.28463885070733));
#498=CARTESIAN_POINT('Origin',(-59.958411933939,1.08787535186732E-14,2.93900249326163E-15));
#499=CARTESIAN_POINT('',(-60.7101660305678,16.414929976256,-4.42154654782822));
#500=CARTESIAN_POINT('Origin',(-60.7101660305678,1.03074972124067E-14,5.29326166832873E-16));
#501=CARTESIAN_POINT('Origin',(-59.075,1.01233941806203E-14,4.74232149022262E-16));
#502=CARTESIAN_POINT('Origin',(-61.575,1.04048687042233E-14,5.58465212791758E-16));
#503=CARTESIAN_POINT('',(-63.,16.414929976256,-4.42154654782822));
#504=CARTESIAN_POINT('Origin',(-63.,1.0565309182677E-14,6.0647805914037E-16));
#505=CARTESIAN_POINT('Origin',(-62.2,1.0475237335124E-14,5.79523478734132E-16));
#506=CARTESIAN_POINT('',(-63.,15.2107797922229,-4.09719511306852));
#507=CARTESIAN_POINT('Origin',(-63.,1.0565309182677E-14,6.0647805914037E-16));
#508=CARTESIAN_POINT('',(-62.5125849027914,14.4997198998828,-3.9056631103842));
#509=CARTESIAN_POINT('Origin',(-62.5125849027914,1.11083134380985E-14,2.8096849178448E-15));
#510=CARTESIAN_POINT('Origin',(-63.,14.69949484449,-3.95947474515501));
#511=CARTESIAN_POINT('Origin',(-62.5655613229064,1.05163958148092E-14,5.91840418823747E-16));
#512=CARTESIAN_POINT('',(-62.1311226458129,14.3433714369524,-3.8635488882993));
#513=CARTESIAN_POINT('Origin',(-62.1311226458129,1.04674824469413E-14,5.77202778507124E-16));
#514=CARTESIAN_POINT('Origin',(-62.2,1.0475237335124E-14,5.79523478734132E-16));
#515=CARTESIAN_POINT('',(-62.5125849027914,12.0538432970019,-3.24683865816144));
#516=CARTESIAN_POINT('Origin',(-62.5125849027914,1.10074600310217E-14,2.43526804874136E-15));
#517=CARTESIAN_POINT('',(-63.,11.3427834046619,-3.05530665547712));
#518=CARTESIAN_POINT('Origin',(-63.,1.0565309182677E-14,6.0647805914037E-16));
#519=CARTESIAN_POINT('Origin',(-62.5655613229064,1.05163958148092E-14,5.91840418823747E-16));
#520=CARTESIAN_POINT('',(-62.1311226458129,12.2101917599323,-3.28895288024635));
#521=CARTESIAN_POINT('Origin',(-62.1311226458129,1.04674824469413E-14,5.77202778507124E-16));
#522=CARTESIAN_POINT('Origin',(-63.,7.72467293000284,-2.08072778721328));
#523=CARTESIAN_POINT('',(-63.,7.72467293000284,-2.08072778721328));
#524=CARTESIAN_POINT('Origin',(-63.,1.0565309182677E-14,6.0647805914037E-16));
#525=CARTESIAN_POINT('Origin',(-62.6,1.05202732589005E-14,5.93000768937251E-16));
#526=CARTESIAN_POINT('Origin',(-20.,12.6,0.));
#527=CARTESIAN_POINT('',(-20.,10.4816349035423,0.));
#528=CARTESIAN_POINT('Origin',(-20.,0.,0.));
#529=CARTESIAN_POINT('',(-20.,9.6,0.));
#530=CARTESIAN_POINT('Origin',(-20.,0.,0.));
#531=CARTESIAN_POINT('Origin',(-25.,10.4816349035423,0.));
#532=CARTESIAN_POINT('',(-25.,-10.5,1.28587913910472E-15));
#533=CARTESIAN_POINT('Origin',(-25.,0.,0.));
#534=CARTESIAN_POINT('',(-25.,10.4816349035423,0.));
#535=CARTESIAN_POINT('Origin',(-25.,0.,0.));
#536=CARTESIAN_POINT('Origin',(-22.5,0.,0.));
#537=CARTESIAN_POINT('Origin',(-15.,12.6,0.));
#538=CARTESIAN_POINT('',(-15.,10.4816349035423,0.));
#539=CARTESIAN_POINT('Origin',(-15.,0.,0.));
#540=CARTESIAN_POINT('',(-15.,9.6,0.));
#541=CARTESIAN_POINT('Origin',(-15.,0.,0.));
#542=CARTESIAN_POINT('Origin',(-17.5,0.,0.));
#543=CARTESIAN_POINT('Origin',(-10.,12.6,0.));
#544=CARTESIAN_POINT('',(-10.,10.4816349035423,0.));
#545=CARTESIAN_POINT('Origin',(-10.,0.,0.));
#546=CARTESIAN_POINT('',(-10.,9.6,0.));
#547=CARTESIAN_POINT('Origin',(-10.,0.,0.));
#548=CARTESIAN_POINT('Origin',(-12.5,0.,0.));
#549=CARTESIAN_POINT('Origin',(-5.,12.6,0.));
#550=CARTESIAN_POINT('',(-5.,10.4816349035423,0.));
#551=CARTESIAN_POINT('Origin',(-5.,0.,0.));
#552=CARTESIAN_POINT('',(-5.,9.6,0.));
#553=CARTESIAN_POINT('Origin',(-5.,0.,0.));
#554=CARTESIAN_POINT('Origin',(-7.5,0.,0.));
#555=CARTESIAN_POINT('Origin',(-2.5,0.,0.));
#556=CARTESIAN_POINT('',(0.,9.6,0.));
#557=CARTESIAN_POINT('Origin',(-1.38777878078145E-15,0.,0.));
#558=CARTESIAN_POINT('Origin',(-45.,10.5,0.));
#559=CARTESIAN_POINT('',(-45.,10.5,0.));
#560=CARTESIAN_POINT('Origin',(-45.,0.,0.));
#561=CARTESIAN_POINT('Origin',(-22.5,0.,0.));
#562=CARTESIAN_POINT('Origin',(-1.46957615897682E-15,8.,0.));
#563=CARTESIAN_POINT('',(-1.46957615897682E-15,8.,0.));
#564=CARTESIAN_POINT('Origin',(0.,0.,0.));
#565=CARTESIAN_POINT('Origin',(-22.5,0.,0.));
#566=UNCERTAINTY_MEASURE_WITH_UNIT(LENGTH_MEASURE(0.01),#570,
'DISTANCE_ACCURACY_VALUE',
'Maximum model space distance between geometric entities at asserted c
onnectivities');
#567=UNCERTAINTY_MEASURE_WITH_UNIT(LENGTH_MEASURE(1.E-6),#570,
'DISTANCE_ACCURACY_VALUE',
'Maximum model space distance between geometric entities at asserted c
onnectivities');
#568=(
GEOMETRIC_REPRESENTATION_CONTEXT(3)
GLOBAL_UNCERTAINTY_ASSIGNED_CONTEXT((#566))
GLOBAL_UNIT_ASSIGNED_CONTEXT((#570,#573,#571))
REPRESENTATION_CONTEXT('','3D')
);
#569=(
GEOMETRIC_REPRESENTATION_CONTEXT(3)
GLOBAL_UNCERTAINTY_ASSIGNED_CONTEXT((#567))
GLOBAL_UNIT_ASSIGNED_CONTEXT((#570,#573,#571))
REPRESENTATION_CONTEXT('','3D')
);
#570=(
LENGTH_UNIT()
NAMED_UNIT(*)
SI_UNIT(.MILLI.,.METRE.)
);
#571=(
NAMED_UNIT(*)
SI_UNIT($,.STERADIAN.)
SOLID_ANGLE_UNIT()
);
#572=DIMENSIONAL_EXPONENTS(0.,0.,0.,0.,0.,0.,0.);
#573=(
CONVERSION_BASED_UNIT('degree',#575)
NAMED_UNIT(#572)
PLANE_ANGLE_UNIT()
);
#574=(
NAMED_UNIT(*)
PLANE_ANGLE_UNIT()
SI_UNIT($,.RADIAN.)
);
#575=PLANE_ANGLE_MEASURE_WITH_UNIT(PLANE_ANGLE_MEASURE(0.01745329252),#574);
#576=SHAPE_DEFINITION_REPRESENTATION(#577,#578);
#577=PRODUCT_DEFINITION_SHAPE('',$,#580);
#578=SHAPE_REPRESENTATION('',(#328),#568);
#579=DESIGN_CONTEXT('part definition',#584,'design');
#580=PRODUCT_DEFINITION('26070015000','26070015000',#581,#579);
#581=PRODUCT_DEFINITION_FORMATION('',$,#586);
#582=PRODUCT_RELATED_PRODUCT_CATEGORY('26070015000','26070015000',(#586));
#583=APPLICATION_PROTOCOL_DEFINITION('international standard',
'ap203_configuration_controlled_3d_design_of_mechanical_parts_and_asse
mblies_mim_lf',2004,#584);
#584=APPLICATION_CONTEXT(
'Configuration Controlled 3D Design of Mechanical Parts and Assemblies');
#585=MECHANICAL_CONTEXT('part definition',#584,'mechanical');
#586=PRODUCT('26070015000','26070015000',$,(#585));
#587=PRESENTATION_STYLE_ASSIGNMENT((#588));
#588=SURFACE_STYLE_USAGE(.BOTH.,#589);
#589=SURFACE_SIDE_STYLE($,(#590));
#590=SURFACE_STYLE_FILL_AREA(#591);
#591=FILL_AREA_STYLE($,(#592));
#592=FILL_AREA_STYLE_COLOUR($,#593);
#593=COLOUR_RGB('',0.745098039215686,0.737254901960784,0.729411764705882);
ENDSEC;
END-ISO-10303-21;
