ISO-10303-21;
HEADER;
/* Generated by software containing ST-Developer
 * from STEP Tools, Inc. (www.steptools.com) 
 */

FILE_DESCRIPTION(
/* description */ (''),
/* implementation_level */ '2;1');

FILE_NAME(
/* name */ 
'C:\\Vault_Workspace\\DATA\\Katalog Bupospol\\2 Potrubn\X\ED d\X\EDly\\
2.6 Hadicov\X\E9 n\X\E1stavce\\26070\\26070\\26070020000.stp',
/* time_stamp */ '2016-03-08T11:58:53+01:00',
/* author */ ('Struska'),
/* organization */ ('BUPOSPOL'),
/* preprocessor_version */ 'ST-DEVELOPER v15.6',
/* originating_system */ 'Autodesk Inventor 2015',
/* authorisation */ '');

FILE_SCHEMA (('CONFIG_CONTROL_DESIGN'));
ENDSEC;

DATA;
#10=MECHANICAL_DESIGN_GEOMETRIC_PRESENTATION_REPRESENTATION('',(#294,#299,
#285,#287,#308,#296,#310,#311,#305,#292,#284,#293,#304,#309,#286,#302,#303,
#297,#289,#291,#300,#307,#306,#298,#301,#295,#288,#290),#590);
#11=SHAPE_REPRESENTATION_RELATIONSHIP('SRR','None',#599,#12);
#12=ADVANCED_BREP_SHAPE_REPRESENTATION($,(#13),#589);
#13=MANIFOLD_SOLID_BREP('T\X2\011B\X0\leso1',#339);
#14=PLANE('',#355);
#15=PLANE('',#363);
#16=PLANE('',#368);
#17=PLANE('',#373);
#18=PLANE('',#378);
#19=PLANE('',#390);
#20=PLANE('',#392);
#21=CYLINDRICAL_SURFACE('',#350,17.);
#22=CYLINDRICAL_SURFACE('',#383,12.5);
#23=CYLINDRICAL_SURFACE('',#384,12.5);
#24=CYLINDRICAL_SURFACE('',#385,12.5);
#25=CYLINDRICAL_SURFACE('',#391,12.5);
#26=CYLINDRICAL_SURFACE('',#394,10.25);
#27=CONICAL_SURFACE('',#344,11.625,1.06091169026422);
#28=CONICAL_SURFACE('',#349,14.7333311289499,70.);
#29=CONICAL_SURFACE('',#356,15.0390141017566,22.9999999999998);
#30=CONICAL_SURFACE('',#361,12.4609858982434,23.);
#31=CONICAL_SURFACE('',#366,10.125,0.795723552739278);
#32=CONICAL_SURFACE('',#371,12.0772585311312,6.50000000000005);
#33=CONICAL_SURFACE('',#376,12.0772585311312,6.50000000000005);
#34=CONICAL_SURFACE('',#381,12.0772585311312,6.50000000000005);
#35=CONICAL_SURFACE('',#387,12.0772585311312,6.50000000000005);
#36=FACE_BOUND('',#91,.T.);
#37=FACE_BOUND('',#93,.T.);
#38=FACE_BOUND('',#95,.T.);
#39=FACE_BOUND('',#97,.T.);
#40=FACE_BOUND('',#99,.T.);
#41=FACE_BOUND('',#101,.T.);
#42=FACE_BOUND('',#103,.T.);
#43=FACE_BOUND('',#105,.T.);
#44=FACE_BOUND('',#107,.T.);
#45=FACE_BOUND('',#109,.T.);
#46=FACE_BOUND('',#111,.T.);
#47=FACE_BOUND('',#113,.T.);
#48=FACE_BOUND('',#115,.T.);
#49=FACE_BOUND('',#117,.T.);
#50=FACE_BOUND('',#119,.T.);
#51=FACE_BOUND('',#121,.T.);
#52=FACE_BOUND('',#123,.T.);
#53=FACE_BOUND('',#125,.T.);
#54=FACE_BOUND('',#127,.T.);
#55=FACE_BOUND('',#129,.T.);
#56=FACE_BOUND('',#131,.T.);
#57=FACE_BOUND('',#133,.T.);
#58=FACE_BOUND('',#135,.T.);
#59=FACE_BOUND('',#137,.T.);
#60=FACE_BOUND('',#139,.T.);
#61=FACE_BOUND('',#141,.T.);
#62=FACE_BOUND('',#143,.T.);
#63=FACE_OUTER_BOUND('',#90,.T.);
#64=FACE_OUTER_BOUND('',#92,.T.);
#65=FACE_OUTER_BOUND('',#94,.T.);
#66=FACE_OUTER_BOUND('',#96,.T.);
#67=FACE_OUTER_BOUND('',#98,.T.);
#68=FACE_OUTER_BOUND('',#100,.T.);
#69=FACE_OUTER_BOUND('',#102,.T.);
#70=FACE_OUTER_BOUND('',#104,.T.);
#71=FACE_OUTER_BOUND('',#106,.T.);
#72=FACE_OUTER_BOUND('',#108,.T.);
#73=FACE_OUTER_BOUND('',#110,.T.);
#74=FACE_OUTER_BOUND('',#112,.T.);
#75=FACE_OUTER_BOUND('',#114,.T.);
#76=FACE_OUTER_BOUND('',#116,.T.);
#77=FACE_OUTER_BOUND('',#118,.T.);
#78=FACE_OUTER_BOUND('',#120,.T.);
#79=FACE_OUTER_BOUND('',#122,.T.);
#80=FACE_OUTER_BOUND('',#124,.T.);
#81=FACE_OUTER_BOUND('',#126,.T.);
#82=FACE_OUTER_BOUND('',#128,.T.);
#83=FACE_OUTER_BOUND('',#130,.T.);
#84=FACE_OUTER_BOUND('',#132,.T.);
#85=FACE_OUTER_BOUND('',#134,.T.);
#86=FACE_OUTER_BOUND('',#136,.T.);
#87=FACE_OUTER_BOUND('',#138,.T.);
#88=FACE_OUTER_BOUND('',#140,.T.);
#89=FACE_OUTER_BOUND('',#142,.T.);
#90=EDGE_LOOP('',(#225));
#91=EDGE_LOOP('',(#226));
#92=EDGE_LOOP('',(#227));
#93=EDGE_LOOP('',(#228));
#94=EDGE_LOOP('',(#229));
#95=EDGE_LOOP('',(#230));
#96=EDGE_LOOP('',(#231));
#97=EDGE_LOOP('',(#232));
#98=EDGE_LOOP('',(#233));
#99=EDGE_LOOP('',(#234));
#100=EDGE_LOOP('',(#235));
#101=EDGE_LOOP('',(#236));
#102=EDGE_LOOP('',(#237));
#103=EDGE_LOOP('',(#238));
#104=EDGE_LOOP('',(#239));
#105=EDGE_LOOP('',(#240));
#106=EDGE_LOOP('',(#241));
#107=EDGE_LOOP('',(#242));
#108=EDGE_LOOP('',(#243));
#109=EDGE_LOOP('',(#244));
#110=EDGE_LOOP('',(#245));
#111=EDGE_LOOP('',(#246));
#112=EDGE_LOOP('',(#247));
#113=EDGE_LOOP('',(#248));
#114=EDGE_LOOP('',(#249));
#115=EDGE_LOOP('',(#250));
#116=EDGE_LOOP('',(#251));
#117=EDGE_LOOP('',(#252));
#118=EDGE_LOOP('',(#253));
#119=EDGE_LOOP('',(#254));
#120=EDGE_LOOP('',(#255));
#121=EDGE_LOOP('',(#256));
#122=EDGE_LOOP('',(#257));
#123=EDGE_LOOP('',(#258));
#124=EDGE_LOOP('',(#259));
#125=EDGE_LOOP('',(#260));
#126=EDGE_LOOP('',(#261));
#127=EDGE_LOOP('',(#262));
#128=EDGE_LOOP('',(#263));
#129=EDGE_LOOP('',(#264));
#130=EDGE_LOOP('',(#265));
#131=EDGE_LOOP('',(#266));
#132=EDGE_LOOP('',(#267));
#133=EDGE_LOOP('',(#268));
#134=EDGE_LOOP('',(#269));
#135=EDGE_LOOP('',(#270));
#136=EDGE_LOOP('',(#271));
#137=EDGE_LOOP('',(#272));
#138=EDGE_LOOP('',(#273));
#139=EDGE_LOOP('',(#274));
#140=EDGE_LOOP('',(#275));
#141=EDGE_LOOP('',(#276));
#142=EDGE_LOOP('',(#277));
#143=EDGE_LOOP('',(#278));
#144=CIRCLE('',#342,11.5320346684278);
#145=CIRCLE('',#343,12.4666622578999);
#146=CIRCLE('',#345,11.75);
#147=CIRCLE('',#347,16.4736161146605);
#148=CIRCLE('',#348,17.);
#149=CIRCLE('',#351,17.);
#150=CIRCLE('',#353,15.7529308283267);
#151=CIRCLE('',#354,15.0165269455648);
#152=CIRCLE('',#357,14.8546058241429);
#153=CIRCLE('',#359,12.4834730544352);
#154=CIRCLE('',#360,11.7470691716732);
#155=CIRCLE('',#362,12.6453941758571);
#156=CIRCLE('',#364,10.);
#157=CIRCLE('',#367,10.25);
#158=CIRCLE('',#369,12.5);
#159=CIRCLE('',#370,11.65);
#160=CIRCLE('',#372,12.5);
#161=CIRCLE('',#374,12.5);
#162=CIRCLE('',#375,11.65);
#163=CIRCLE('',#377,12.5);
#164=CIRCLE('',#379,12.5);
#165=CIRCLE('',#380,11.65);
#166=CIRCLE('',#382,12.5);
#167=CIRCLE('',#386,12.5);
#168=CIRCLE('',#388,12.5);
#169=CIRCLE('',#389,11.65);
#170=CIRCLE('',#393,10.25);
#171=VERTEX_POINT('',#507);
#172=VERTEX_POINT('',#509);
#173=VERTEX_POINT('',#512);
#174=VERTEX_POINT('',#515);
#175=VERTEX_POINT('',#517);
#176=VERTEX_POINT('',#521);
#177=VERTEX_POINT('',#524);
#178=VERTEX_POINT('',#526);
#179=VERTEX_POINT('',#530);
#180=VERTEX_POINT('',#533);
#181=VERTEX_POINT('',#535);
#182=VERTEX_POINT('',#538);
#183=VERTEX_POINT('',#541);
#184=VERTEX_POINT('',#545);
#185=VERTEX_POINT('',#548);
#186=VERTEX_POINT('',#550);
#187=VERTEX_POINT('',#553);
#188=VERTEX_POINT('',#556);
#189=VERTEX_POINT('',#558);
#190=VERTEX_POINT('',#561);
#191=VERTEX_POINT('',#564);
#192=VERTEX_POINT('',#566);
#193=VERTEX_POINT('',#569);
#194=VERTEX_POINT('',#574);
#195=VERTEX_POINT('',#577);
#196=VERTEX_POINT('',#579);
#197=VERTEX_POINT('',#584);
#198=EDGE_CURVE('',#171,#171,#144,.T.);
#199=EDGE_CURVE('',#172,#172,#145,.T.);
#200=EDGE_CURVE('',#173,#173,#146,.T.);
#201=EDGE_CURVE('',#174,#174,#147,.T.);
#202=EDGE_CURVE('',#175,#175,#148,.T.);
#203=EDGE_CURVE('',#176,#176,#149,.T.);
#204=EDGE_CURVE('',#177,#177,#150,.T.);
#205=EDGE_CURVE('',#178,#178,#151,.T.);
#206=EDGE_CURVE('',#179,#179,#152,.T.);
#207=EDGE_CURVE('',#180,#180,#153,.T.);
#208=EDGE_CURVE('',#181,#181,#154,.T.);
#209=EDGE_CURVE('',#182,#182,#155,.T.);
#210=EDGE_CURVE('',#183,#183,#156,.T.);
#211=EDGE_CURVE('',#184,#184,#157,.T.);
#212=EDGE_CURVE('',#185,#185,#158,.T.);
#213=EDGE_CURVE('',#186,#186,#159,.T.);
#214=EDGE_CURVE('',#187,#187,#160,.T.);
#215=EDGE_CURVE('',#188,#188,#161,.T.);
#216=EDGE_CURVE('',#189,#189,#162,.T.);
#217=EDGE_CURVE('',#190,#190,#163,.T.);
#218=EDGE_CURVE('',#191,#191,#164,.T.);
#219=EDGE_CURVE('',#192,#192,#165,.T.);
#220=EDGE_CURVE('',#193,#193,#166,.T.);
#221=EDGE_CURVE('',#194,#194,#167,.T.);
#222=EDGE_CURVE('',#195,#195,#168,.T.);
#223=EDGE_CURVE('',#196,#196,#169,.T.);
#224=EDGE_CURVE('',#197,#197,#170,.T.);
#225=ORIENTED_EDGE('',*,*,#198,.T.);
#226=ORIENTED_EDGE('',*,*,#199,.F.);
#227=ORIENTED_EDGE('',*,*,#200,.F.);
#228=ORIENTED_EDGE('',*,*,#198,.F.);
#229=ORIENTED_EDGE('',*,*,#201,.T.);
#230=ORIENTED_EDGE('',*,*,#202,.T.);
#231=ORIENTED_EDGE('',*,*,#199,.T.);
#232=ORIENTED_EDGE('',*,*,#201,.F.);
#233=ORIENTED_EDGE('',*,*,#203,.F.);
#234=ORIENTED_EDGE('',*,*,#202,.F.);
#235=ORIENTED_EDGE('',*,*,#204,.T.);
#236=ORIENTED_EDGE('',*,*,#205,.T.);
#237=ORIENTED_EDGE('',*,*,#203,.T.);
#238=ORIENTED_EDGE('',*,*,#204,.F.);
#239=ORIENTED_EDGE('',*,*,#206,.F.);
#240=ORIENTED_EDGE('',*,*,#205,.F.);
#241=ORIENTED_EDGE('',*,*,#207,.T.);
#242=ORIENTED_EDGE('',*,*,#208,.T.);
#243=ORIENTED_EDGE('',*,*,#209,.T.);
#244=ORIENTED_EDGE('',*,*,#207,.F.);
#245=ORIENTED_EDGE('',*,*,#208,.F.);
#246=ORIENTED_EDGE('',*,*,#210,.F.);
#247=ORIENTED_EDGE('',*,*,#206,.T.);
#248=ORIENTED_EDGE('',*,*,#209,.F.);
#249=ORIENTED_EDGE('',*,*,#210,.T.);
#250=ORIENTED_EDGE('',*,*,#211,.T.);
#251=ORIENTED_EDGE('',*,*,#212,.F.);
#252=ORIENTED_EDGE('',*,*,#213,.F.);
#253=ORIENTED_EDGE('',*,*,#214,.F.);
#254=ORIENTED_EDGE('',*,*,#213,.T.);
#255=ORIENTED_EDGE('',*,*,#215,.F.);
#256=ORIENTED_EDGE('',*,*,#216,.F.);
#257=ORIENTED_EDGE('',*,*,#217,.F.);
#258=ORIENTED_EDGE('',*,*,#216,.T.);
#259=ORIENTED_EDGE('',*,*,#218,.F.);
#260=ORIENTED_EDGE('',*,*,#219,.F.);
#261=ORIENTED_EDGE('',*,*,#220,.F.);
#262=ORIENTED_EDGE('',*,*,#219,.T.);
#263=ORIENTED_EDGE('',*,*,#220,.T.);
#264=ORIENTED_EDGE('',*,*,#215,.T.);
#265=ORIENTED_EDGE('',*,*,#217,.T.);
#266=ORIENTED_EDGE('',*,*,#212,.T.);
#267=ORIENTED_EDGE('',*,*,#221,.T.);
#268=ORIENTED_EDGE('',*,*,#214,.T.);
#269=ORIENTED_EDGE('',*,*,#222,.F.);
#270=ORIENTED_EDGE('',*,*,#223,.F.);
#271=ORIENTED_EDGE('',*,*,#221,.F.);
#272=ORIENTED_EDGE('',*,*,#200,.T.);
#273=ORIENTED_EDGE('',*,*,#218,.T.);
#274=ORIENTED_EDGE('',*,*,#222,.T.);
#275=ORIENTED_EDGE('',*,*,#223,.T.);
#276=ORIENTED_EDGE('',*,*,#224,.F.);
#277=ORIENTED_EDGE('',*,*,#224,.T.);
#278=ORIENTED_EDGE('',*,*,#211,.F.);
#279=TOROIDAL_SURFACE('',#341,13.5316918210781,2.);
#280=TOROIDAL_SURFACE('',#346,16.2,0.8);
#281=TOROIDAL_SURFACE('',#352,15.7529308283268,0.8);
#282=TOROIDAL_SURFACE('',#358,11.7470691716732,0.8);
#283=TOROIDAL_SURFACE('',#365,13.75,1.2);
#284=STYLED_ITEM('',(#608),#312);
#285=STYLED_ITEM('',(#608),#313);
#286=STYLED_ITEM('',(#608),#314);
#287=STYLED_ITEM('',(#608),#315);
#288=STYLED_ITEM('',(#608),#316);
#289=STYLED_ITEM('',(#608),#317);
#290=STYLED_ITEM('',(#608),#318);
#291=STYLED_ITEM('',(#608),#319);
#292=STYLED_ITEM('',(#608),#320);
#293=STYLED_ITEM('',(#608),#321);
#294=STYLED_ITEM('',(#608),#322);
#295=STYLED_ITEM('',(#608),#323);
#296=STYLED_ITEM('',(#608),#324);
#297=STYLED_ITEM('',(#608),#325);
#298=STYLED_ITEM('',(#608),#326);
#299=STYLED_ITEM('',(#608),#327);
#300=STYLED_ITEM('',(#608),#328);
#301=STYLED_ITEM('',(#608),#329);
#302=STYLED_ITEM('',(#608),#330);
#303=STYLED_ITEM('',(#608),#331);
#304=STYLED_ITEM('',(#608),#332);
#305=STYLED_ITEM('',(#608),#333);
#306=STYLED_ITEM('',(#608),#334);
#307=STYLED_ITEM('',(#608),#335);
#308=STYLED_ITEM('',(#608),#336);
#309=STYLED_ITEM('',(#608),#337);
#310=STYLED_ITEM('',(#608),#338);
#311=STYLED_ITEM('',(#608),#13);
#312=ADVANCED_FACE('',(#63,#36),#279,.F.);
#313=ADVANCED_FACE('',(#64,#37),#27,.T.);
#314=ADVANCED_FACE('',(#65,#38),#280,.T.);
#315=ADVANCED_FACE('',(#66,#39),#28,.T.);
#316=ADVANCED_FACE('',(#67,#40),#21,.T.);
#317=ADVANCED_FACE('',(#68,#41),#281,.T.);
#318=ADVANCED_FACE('',(#69,#42),#14,.T.);
#319=ADVANCED_FACE('',(#70,#43),#29,.F.);
#320=ADVANCED_FACE('',(#71,#44),#282,.T.);
#321=ADVANCED_FACE('',(#72,#45),#30,.T.);
#322=ADVANCED_FACE('',(#73,#46),#15,.T.);
#323=ADVANCED_FACE('',(#74,#47),#283,.F.);
#324=ADVANCED_FACE('',(#75,#48),#31,.F.);
#325=ADVANCED_FACE('',(#76,#49),#16,.F.);
#326=ADVANCED_FACE('',(#77,#50),#32,.T.);
#327=ADVANCED_FACE('',(#78,#51),#17,.F.);
#328=ADVANCED_FACE('',(#79,#52),#33,.T.);
#329=ADVANCED_FACE('',(#80,#53),#18,.F.);
#330=ADVANCED_FACE('',(#81,#54),#34,.T.);
#331=ADVANCED_FACE('',(#82,#55),#22,.T.);
#332=ADVANCED_FACE('',(#83,#56),#23,.T.);
#333=ADVANCED_FACE('',(#84,#57),#24,.T.);
#334=ADVANCED_FACE('',(#85,#58),#35,.T.);
#335=ADVANCED_FACE('',(#86,#59),#19,.T.);
#336=ADVANCED_FACE('',(#87,#60),#25,.T.);
#337=ADVANCED_FACE('',(#88,#61),#20,.T.);
#338=ADVANCED_FACE('',(#89,#62),#26,.F.);
#339=CLOSED_SHELL('',(#312,#313,#314,#315,#316,#317,#318,#319,#320,#321,
#322,#323,#324,#325,#326,#327,#328,#329,#330,#331,#332,#333,#334,#335,#336,
#337,#338));
#340=AXIS2_PLACEMENT_3D('placement',#505,#395,#396);
#341=AXIS2_PLACEMENT_3D('',#506,#397,#398);
#342=AXIS2_PLACEMENT_3D('',#508,#399,#400);
#343=AXIS2_PLACEMENT_3D('',#510,#401,#402);
#344=AXIS2_PLACEMENT_3D('',#511,#403,#404);
#345=AXIS2_PLACEMENT_3D('',#513,#405,#406);
#346=AXIS2_PLACEMENT_3D('',#514,#407,#408);
#347=AXIS2_PLACEMENT_3D('',#516,#409,#410);
#348=AXIS2_PLACEMENT_3D('',#518,#411,#412);
#349=AXIS2_PLACEMENT_3D('',#519,#413,#414);
#350=AXIS2_PLACEMENT_3D('',#520,#415,#416);
#351=AXIS2_PLACEMENT_3D('',#522,#417,#418);
#352=AXIS2_PLACEMENT_3D('',#523,#419,#420);
#353=AXIS2_PLACEMENT_3D('',#525,#421,#422);
#354=AXIS2_PLACEMENT_3D('',#527,#423,#424);
#355=AXIS2_PLACEMENT_3D('',#528,#425,#426);
#356=AXIS2_PLACEMENT_3D('',#529,#427,#428);
#357=AXIS2_PLACEMENT_3D('',#531,#429,#430);
#358=AXIS2_PLACEMENT_3D('',#532,#431,#432);
#359=AXIS2_PLACEMENT_3D('',#534,#433,#434);
#360=AXIS2_PLACEMENT_3D('',#536,#435,#436);
#361=AXIS2_PLACEMENT_3D('',#537,#437,#438);
#362=AXIS2_PLACEMENT_3D('',#539,#439,#440);
#363=AXIS2_PLACEMENT_3D('',#540,#441,#442);
#364=AXIS2_PLACEMENT_3D('',#542,#443,#444);
#365=AXIS2_PLACEMENT_3D('',#543,#445,#446);
#366=AXIS2_PLACEMENT_3D('',#544,#447,#448);
#367=AXIS2_PLACEMENT_3D('',#546,#449,#450);
#368=AXIS2_PLACEMENT_3D('',#547,#451,#452);
#369=AXIS2_PLACEMENT_3D('',#549,#453,#454);
#370=AXIS2_PLACEMENT_3D('',#551,#455,#456);
#371=AXIS2_PLACEMENT_3D('',#552,#457,#458);
#372=AXIS2_PLACEMENT_3D('',#554,#459,#460);
#373=AXIS2_PLACEMENT_3D('',#555,#461,#462);
#374=AXIS2_PLACEMENT_3D('',#557,#463,#464);
#375=AXIS2_PLACEMENT_3D('',#559,#465,#466);
#376=AXIS2_PLACEMENT_3D('',#560,#467,#468);
#377=AXIS2_PLACEMENT_3D('',#562,#469,#470);
#378=AXIS2_PLACEMENT_3D('',#563,#471,#472);
#379=AXIS2_PLACEMENT_3D('',#565,#473,#474);
#380=AXIS2_PLACEMENT_3D('',#567,#475,#476);
#381=AXIS2_PLACEMENT_3D('',#568,#477,#478);
#382=AXIS2_PLACEMENT_3D('',#570,#479,#480);
#383=AXIS2_PLACEMENT_3D('',#571,#481,#482);
#384=AXIS2_PLACEMENT_3D('',#572,#483,#484);
#385=AXIS2_PLACEMENT_3D('',#573,#485,#486);
#386=AXIS2_PLACEMENT_3D('',#575,#487,#488);
#387=AXIS2_PLACEMENT_3D('',#576,#489,#490);
#388=AXIS2_PLACEMENT_3D('',#578,#491,#492);
#389=AXIS2_PLACEMENT_3D('',#580,#493,#494);
#390=AXIS2_PLACEMENT_3D('',#581,#495,#496);
#391=AXIS2_PLACEMENT_3D('',#582,#497,#498);
#392=AXIS2_PLACEMENT_3D('',#583,#499,#500);
#393=AXIS2_PLACEMENT_3D('',#585,#501,#502);
#394=AXIS2_PLACEMENT_3D('',#586,#503,#504);
#395=DIRECTION('axis',(0.,0.,1.));
#396=DIRECTION('refdir',(1.,0.,0.));
#397=DIRECTION('center_axis',(-1.,1.12589809441193E-16,3.36932255077983E-17));
#398=DIRECTION('ref_axis',(0.,0.965584116250354,-0.26009097340166));
#399=DIRECTION('center_axis',(-1.,1.12589809441193E-16,3.36932255077983E-17));
#400=DIRECTION('ref_axis',(9.99516278287055E-17,0.965584116250354,-0.26009097340166));
#401=DIRECTION('center_axis',(-1.,1.12589809441193E-16,3.36932255077983E-17));
#402=DIRECTION('ref_axis',(6.18172365082387E-17,0.26009097340166,0.965584116250354));
#403=DIRECTION('center_axis',(1.,-1.12589809441193E-16,-3.36932255077983E-17));
#404=DIRECTION('ref_axis',(9.99516278287055E-17,0.965584116250354,-0.26009097340166));
#405=DIRECTION('center_axis',(1.,0.,0.));
#406=DIRECTION('ref_axis',(9.99516278287055E-17,0.965584116250354,-0.26009097340166));
#407=DIRECTION('center_axis',(-1.,1.12589809441193E-16,3.36932255077983E-17));
#408=DIRECTION('ref_axis',(0.,0.26009097340166,0.965584116250354));
#409=DIRECTION('center_axis',(-1.,1.12589809441193E-16,3.36932255077983E-17));
#410=DIRECTION('ref_axis',(-9.99516278287055E-17,-0.965584116250354,0.26009097340166));
#411=DIRECTION('center_axis',(1.,-1.12589809441193E-16,-3.36932255077983E-17));
#412=DIRECTION('ref_axis',(-9.99516278287055E-17,-0.965584116250354,0.26009097340166));
#413=DIRECTION('center_axis',(-1.,1.12589809441193E-16,3.36932255077983E-17));
#414=DIRECTION('ref_axis',(9.99516278287055E-17,0.965584116250354,-0.26009097340166));
#415=DIRECTION('center_axis',(-1.,1.12589809441193E-16,3.36932255077983E-17));
#416=DIRECTION('ref_axis',(9.99516278287055E-17,0.965584116250354,-0.26009097340166));
#417=DIRECTION('center_axis',(-1.,1.12589809441193E-16,3.36932255077983E-17));
#418=DIRECTION('ref_axis',(6.18172365082387E-17,0.26009097340166,0.965584116250354));
#419=DIRECTION('center_axis',(-1.,1.12589809441193E-16,3.36932255077983E-17));
#420=DIRECTION('ref_axis',(0.,0.26009097340166,0.965584116250354));
#421=DIRECTION('center_axis',(-1.,1.12589809441193E-16,3.36932255077983E-17));
#422=DIRECTION('ref_axis',(-9.99516278287055E-17,-0.965584116250354,0.26009097340166));
#423=DIRECTION('center_axis',(1.,-1.12589809441193E-16,-3.36932255077983E-17));
#424=DIRECTION('ref_axis',(-9.99516278287055E-17,-0.965584116250354,0.26009097340166));
#425=DIRECTION('center_axis',(-1.,1.12589809441193E-16,3.36932255077983E-17));
#426=DIRECTION('ref_axis',(0.,0.26009097340166,0.965584116250354));
#427=DIRECTION('center_axis',(-1.,1.12589809441193E-16,3.36932255077983E-17));
#428=DIRECTION('ref_axis',(9.99516278287055E-17,0.965584116250354,-0.26009097340166));
#429=DIRECTION('center_axis',(-1.,1.12589809441193E-16,3.36932255077983E-17));
#430=DIRECTION('ref_axis',(6.18172365082387E-17,0.26009097340166,0.965584116250354));
#431=DIRECTION('center_axis',(-1.,1.12589809441193E-16,3.36932255077983E-17));
#432=DIRECTION('ref_axis',(0.,0.26009097340166,0.965584116250354));
#433=DIRECTION('center_axis',(-1.,1.12589809441193E-16,3.36932255077983E-17));
#434=DIRECTION('ref_axis',(-9.99516278287054E-17,-0.965584116250354,0.26009097340166));
#435=DIRECTION('center_axis',(1.,-1.12589809441193E-16,-3.36932255077983E-17));
#436=DIRECTION('ref_axis',(-9.99516278287055E-17,-0.965584116250354,0.26009097340166));
#437=DIRECTION('center_axis',(1.,-1.12589809441193E-16,-3.36932255077983E-17));
#438=DIRECTION('ref_axis',(9.99516278287055E-17,0.965584116250354,-0.26009097340166));
#439=DIRECTION('center_axis',(-1.,1.12589809441193E-16,3.36932255077983E-17));
#440=DIRECTION('ref_axis',(6.18172365082387E-17,0.26009097340166,0.965584116250354));
#441=DIRECTION('center_axis',(-1.,1.12589809441193E-16,3.36932255077983E-17));
#442=DIRECTION('ref_axis',(0.,0.26009097340166,0.965584116250354));
#443=DIRECTION('center_axis',(-1.,1.12589809441193E-16,3.36932255077983E-17));
#444=DIRECTION('ref_axis',(6.18172365082387E-17,0.26009097340166,0.965584116250354));
#445=DIRECTION('center_axis',(-1.,1.12589809441193E-16,3.36932255077983E-17));
#446=DIRECTION('ref_axis',(0.,0.26009097340166,0.965584116250354));
#447=DIRECTION('center_axis',(1.,-1.12589809441193E-16,-3.36932255077983E-17));
#448=DIRECTION('ref_axis',(9.99516278287055E-17,0.965584116250354,-0.26009097340166));
#449=DIRECTION('center_axis',(1.,0.,0.));
#450=DIRECTION('ref_axis',(0.,0.,-1.));
#451=DIRECTION('center_axis',(1.,0.,0.));
#452=DIRECTION('ref_axis',(0.,0.,-1.));
#453=DIRECTION('center_axis',(1.,0.,0.));
#454=DIRECTION('ref_axis',(0.,1.,0.));
#455=DIRECTION('center_axis',(-1.,0.,0.));
#456=DIRECTION('ref_axis',(0.,0.,1.));
#457=DIRECTION('center_axis',(-1.,0.,0.));
#458=DIRECTION('ref_axis',(0.,1.,0.));
#459=DIRECTION('center_axis',(-1.,0.,0.));
#460=DIRECTION('ref_axis',(0.,1.,0.));
#461=DIRECTION('center_axis',(1.,0.,0.));
#462=DIRECTION('ref_axis',(0.,0.,-1.));
#463=DIRECTION('center_axis',(1.,0.,0.));
#464=DIRECTION('ref_axis',(0.,1.,0.));
#465=DIRECTION('center_axis',(-1.,0.,0.));
#466=DIRECTION('ref_axis',(0.,0.,1.));
#467=DIRECTION('center_axis',(-1.,0.,0.));
#468=DIRECTION('ref_axis',(0.,1.,0.));
#469=DIRECTION('center_axis',(-1.,0.,0.));
#470=DIRECTION('ref_axis',(0.,1.,0.));
#471=DIRECTION('center_axis',(1.,0.,0.));
#472=DIRECTION('ref_axis',(0.,0.,-1.));
#473=DIRECTION('center_axis',(1.,0.,0.));
#474=DIRECTION('ref_axis',(0.,1.,0.));
#475=DIRECTION('center_axis',(-1.,0.,0.));
#476=DIRECTION('ref_axis',(0.,0.,1.));
#477=DIRECTION('center_axis',(-1.,0.,0.));
#478=DIRECTION('ref_axis',(0.,1.,0.));
#479=DIRECTION('center_axis',(-1.,0.,0.));
#480=DIRECTION('ref_axis',(0.,1.,0.));
#481=DIRECTION('center_axis',(1.,0.,0.));
#482=DIRECTION('ref_axis',(0.,1.,0.));
#483=DIRECTION('center_axis',(1.,0.,0.));
#484=DIRECTION('ref_axis',(0.,1.,0.));
#485=DIRECTION('center_axis',(1.,0.,0.));
#486=DIRECTION('ref_axis',(0.,1.,0.));
#487=DIRECTION('center_axis',(1.,0.,0.));
#488=DIRECTION('ref_axis',(0.,0.,-1.));
#489=DIRECTION('center_axis',(-1.,0.,0.));
#490=DIRECTION('ref_axis',(0.,1.,0.));
#491=DIRECTION('center_axis',(-1.,0.,0.));
#492=DIRECTION('ref_axis',(0.,1.,0.));
#493=DIRECTION('center_axis',(1.,0.,0.));
#494=DIRECTION('ref_axis',(0.,1.,0.));
#495=DIRECTION('center_axis',(-1.,0.,0.));
#496=DIRECTION('ref_axis',(0.,0.,1.));
#497=DIRECTION('center_axis',(1.,0.,0.));
#498=DIRECTION('ref_axis',(0.,1.,0.));
#499=DIRECTION('center_axis',(1.,0.,0.));
#500=DIRECTION('ref_axis',(0.,0.,-1.));
#501=DIRECTION('center_axis',(1.,0.,0.));
#502=DIRECTION('ref_axis',(0.,0.,-1.));
#503=DIRECTION('center_axis',(1.,0.,0.));
#504=DIRECTION('ref_axis',(0.,1.,0.));
#505=CARTESIAN_POINT('',(0.,0.,0.));
#506=CARTESIAN_POINT('Origin',(-62.8071585929106,1.1006550697118E-14,3.97821257077275E-16));
#507=CARTESIAN_POINT('',(-62.7701279048985,-11.1351495038823,2.99937812221308));
#508=CARTESIAN_POINT('Origin',(-62.7701279048985,1.10023814190113E-14,3.96573573755377E-16));
#509=CARTESIAN_POINT('',(-64.5,12.0376110588859,-3.24246632172692));
#510=CARTESIAN_POINT('Origin',(-64.5,1.11971473885564E-14,4.54858544355278E-16));
#511=CARTESIAN_POINT('Origin',(-57.75,1.04371661748283E-14,2.27429272177639E-16));
#512=CARTESIAN_POINT('',(-51.,11.3456133659417,-3.05606893746951));
#513=CARTESIAN_POINT('Origin',(-51.,9.67718496110025E-15,3.38963670212154E-31));
#514=CARTESIAN_POINT('Origin',(-66.7101660305678,1.14459895607714E-14,5.29326166832873E-16));
#515=CARTESIAN_POINT('',(-65.958411933939,15.9066620575221,-4.28463885070733));
#516=CARTESIAN_POINT('Origin',(-65.958411933939,1.2017245867038E-14,2.93900249326163E-15));
#517=CARTESIAN_POINT('',(-66.7101660305678,16.414929976256,-4.42154654782822));
#518=CARTESIAN_POINT('Origin',(-66.7101660305678,1.14459895607714E-14,5.29326166832873E-16));
#519=CARTESIAN_POINT('Origin',(-65.325,1.12900339813453E-14,4.82655455399211E-16));
#520=CARTESIAN_POINT('Origin',(-67.575,1.1543361052588E-14,5.58465212791758E-16));
#521=CARTESIAN_POINT('',(-69.,16.414929976256,-4.42154654782822));
#522=CARTESIAN_POINT('Origin',(-69.,1.17038015310417E-14,6.0647805914037E-16));
#523=CARTESIAN_POINT('Origin',(-68.2,1.16137296834888E-14,5.79523478734131E-16));
#524=CARTESIAN_POINT('',(-69.,15.2107797922229,-4.09719511306852));
#525=CARTESIAN_POINT('Origin',(-69.,1.17038015310417E-14,6.0647805914037E-16));
#526=CARTESIAN_POINT('',(-68.5125849027914,14.4997198998828,-3.9056631103842));
#527=CARTESIAN_POINT('Origin',(-68.5125849027914,1.22468057864632E-14,2.8096849178448E-15));
#528=CARTESIAN_POINT('Origin',(-69.,14.69949484449,-3.95947474515501));
#529=CARTESIAN_POINT('Origin',(-68.5655613229064,1.16548881631739E-14,5.91840418823747E-16));
#530=CARTESIAN_POINT('',(-68.1311226458129,14.3433714369524,-3.8635488882993));
#531=CARTESIAN_POINT('Origin',(-68.1311226458129,1.1605974795306E-14,5.77202778507124E-16));
#532=CARTESIAN_POINT('Origin',(-68.2,1.16137296834888E-14,5.79523478734131E-16));
#533=CARTESIAN_POINT('',(-68.5125849027914,12.0538432970019,-3.24683865816144));
#534=CARTESIAN_POINT('Origin',(-68.5125849027914,1.21459523793864E-14,2.43526804874136E-15));
#535=CARTESIAN_POINT('',(-69.,11.3427834046619,-3.05530665547712));
#536=CARTESIAN_POINT('Origin',(-69.,1.17038015310417E-14,6.0647805914037E-16));
#537=CARTESIAN_POINT('Origin',(-68.5655613229064,1.16548881631739E-14,5.91840418823747E-16));
#538=CARTESIAN_POINT('',(-68.1311226458129,12.2101917599323,-3.28895288024635));
#539=CARTESIAN_POINT('Origin',(-68.1311226458129,1.1605974795306E-14,5.77202778507124E-16));
#540=CARTESIAN_POINT('Origin',(-69.,9.65584116250355,-2.6009097340166));
#541=CARTESIAN_POINT('',(-69.,9.65584116250355,-2.6009097340166));
#542=CARTESIAN_POINT('Origin',(-69.,1.17038015310417E-14,6.0647805914037E-16));
#543=CARTESIAN_POINT('Origin',(-68.6,1.16587656072653E-14,5.93000768937251E-16));
#544=CARTESIAN_POINT('Origin',(-60.,1.0690493246071E-14,3.03239029570185E-16));
#545=CARTESIAN_POINT('',(-51.,10.25,0.));
#546=CARTESIAN_POINT('Origin',(-51.,0.,0.));
#547=CARTESIAN_POINT('Origin',(-22.5,14.65,0.));
#548=CARTESIAN_POINT('',(-22.5,-12.5,-1.53080849893419E-15));
#549=CARTESIAN_POINT('Origin',(-22.5,0.,0.));
#550=CARTESIAN_POINT('',(-22.5,11.65,0.));
#551=CARTESIAN_POINT('Origin',(-22.5,0.,0.));
#552=CARTESIAN_POINT('Origin',(-26.25,0.,0.));
#553=CARTESIAN_POINT('',(-29.9603542533394,-12.5,1.53080849893419E-15));
#554=CARTESIAN_POINT('Origin',(-29.9603542533394,0.,0.));
#555=CARTESIAN_POINT('Origin',(-15.,14.65,0.));
#556=CARTESIAN_POINT('',(-15.,-12.5,-1.53080849893419E-15));
#557=CARTESIAN_POINT('Origin',(-15.,0.,0.));
#558=CARTESIAN_POINT('',(-15.,11.65,0.));
#559=CARTESIAN_POINT('Origin',(-15.,0.,0.));
#560=CARTESIAN_POINT('Origin',(-18.75,0.,0.));
#561=CARTESIAN_POINT('',(-22.4603542533394,-12.5,1.53080849893419E-15));
#562=CARTESIAN_POINT('Origin',(-22.4603542533394,0.,0.));
#563=CARTESIAN_POINT('Origin',(-7.5,14.65,0.));
#564=CARTESIAN_POINT('',(-7.5,-12.5,-1.53080849893419E-15));
#565=CARTESIAN_POINT('Origin',(-7.5,0.,0.));
#566=CARTESIAN_POINT('',(-7.5,11.65,0.));
#567=CARTESIAN_POINT('Origin',(-7.5,0.,0.));
#568=CARTESIAN_POINT('Origin',(-11.25,0.,0.));
#569=CARTESIAN_POINT('',(-14.9603542533394,-12.5,1.53080849893419E-15));
#570=CARTESIAN_POINT('Origin',(-14.9603542533394,0.,0.));
#571=CARTESIAN_POINT('Origin',(-25.5,0.,0.));
#572=CARTESIAN_POINT('Origin',(-25.5,0.,0.));
#573=CARTESIAN_POINT('Origin',(-25.5,0.,0.));
#574=CARTESIAN_POINT('',(-51.,12.5,0.));
#575=CARTESIAN_POINT('Origin',(-51.,0.,0.));
#576=CARTESIAN_POINT('Origin',(-3.75,0.,0.));
#577=CARTESIAN_POINT('',(-7.46035425333936,-12.5,1.53080849893419E-15));
#578=CARTESIAN_POINT('Origin',(-7.46035425333936,0.,0.));
#579=CARTESIAN_POINT('',(0.,11.65,0.));
#580=CARTESIAN_POINT('Origin',(-1.66533453693773E-15,0.,0.));
#581=CARTESIAN_POINT('Origin',(-51.,12.5,0.));
#582=CARTESIAN_POINT('Origin',(-25.5,0.,0.));
#583=CARTESIAN_POINT('Origin',(-1.88289445368906E-15,10.25,0.));
#584=CARTESIAN_POINT('',(-1.88289445368906E-15,10.25,0.));
#585=CARTESIAN_POINT('Origin',(0.,0.,0.));
#586=CARTESIAN_POINT('Origin',(-25.5,0.,0.));
#587=UNCERTAINTY_MEASURE_WITH_UNIT(LENGTH_MEASURE(0.01),#591,
'DISTANCE_ACCURACY_VALUE',
'Maximum model space distance between geometric entities at asserted c
onnectivities');
#588=UNCERTAINTY_MEASURE_WITH_UNIT(LENGTH_MEASURE(1.E-6),#591,
'DISTANCE_ACCURACY_VALUE',
'Maximum model space distance between geometric entities at asserted c
onnectivities');
#589=(
GEOMETRIC_REPRESENTATION_CONTEXT(3)
GLOBAL_UNCERTAINTY_ASSIGNED_CONTEXT((#587))
GLOBAL_UNIT_ASSIGNED_CONTEXT((#591,#594,#592))
REPRESENTATION_CONTEXT('','3D')
);
#590=(
GEOMETRIC_REPRESENTATION_CONTEXT(3)
GLOBAL_UNCERTAINTY_ASSIGNED_CONTEXT((#588))
GLOBAL_UNIT_ASSIGNED_CONTEXT((#591,#594,#592))
REPRESENTATION_CONTEXT('','3D')
);
#591=(
LENGTH_UNIT()
NAMED_UNIT(*)
SI_UNIT(.MILLI.,.METRE.)
);
#592=(
NAMED_UNIT(*)
SI_UNIT($,.STERADIAN.)
SOLID_ANGLE_UNIT()
);
#593=DIMENSIONAL_EXPONENTS(0.,0.,0.,0.,0.,0.,0.);
#594=(
CONVERSION_BASED_UNIT('degree',#596)
NAMED_UNIT(#593)
PLANE_ANGLE_UNIT()
);
#595=(
NAMED_UNIT(*)
PLANE_ANGLE_UNIT()
SI_UNIT($,.RADIAN.)
);
#596=PLANE_ANGLE_MEASURE_WITH_UNIT(PLANE_ANGLE_MEASURE(0.01745329252),#595);
#597=SHAPE_DEFINITION_REPRESENTATION(#598,#599);
#598=PRODUCT_DEFINITION_SHAPE('',$,#601);
#599=SHAPE_REPRESENTATION('',(#340),#589);
#600=DESIGN_CONTEXT('part definition',#605,'design');
#601=PRODUCT_DEFINITION('26070020000','26070020000',#602,#600);
#602=PRODUCT_DEFINITION_FORMATION('',$,#607);
#603=PRODUCT_RELATED_PRODUCT_CATEGORY('26070020000','26070020000',(#607));
#604=APPLICATION_PROTOCOL_DEFINITION('international standard',
'ap203_configuration_controlled_3d_design_of_mechanical_parts_and_asse
mblies_mim_lf',2004,#605);
#605=APPLICATION_CONTEXT(
'Configuration Controlled 3D Design of Mechanical Parts and Assemblies');
#606=MECHANICAL_CONTEXT('part definition',#605,'mechanical');
#607=PRODUCT('26070020000','26070020000',$,(#606));
#608=PRESENTATION_STYLE_ASSIGNMENT((#609));
#609=SURFACE_STYLE_USAGE(.BOTH.,#610);
#610=SURFACE_SIDE_STYLE($,(#611));
#611=SURFACE_STYLE_FILL_AREA(#612);
#612=FILL_AREA_STYLE($,(#613));
#613=FILL_AREA_STYLE_COLOUR($,#614);
#614=COLOUR_RGB('',0.745098039215686,0.737254901960784,0.729411764705882);
ENDSEC;
END-ISO-10303-21;
