ISO-10303-21;
HEADER;
/* Generated by software containing ST-Developer
 * from STEP Tools, Inc. (www.steptools.com) 
 */

FILE_DESCRIPTION(
/* description */ (''),
/* implementation_level */ '2;1');

FILE_NAME(
/* name */ 
'C:\\Vault_Workspace\\DATA\\Katalog Bupospol\\2 Potrubn\X\ED d\X\EDly\\
2.6 Hadicov\X\E9 n\X\E1stavce\\26070\\26070\\26070025000.stp',
/* time_stamp */ '2016-03-08T11:58:57+01:00',
/* author */ ('Struska'),
/* organization */ ('BUPOSPOL'),
/* preprocessor_version */ 'ST-DEVELOPER v15.6',
/* originating_system */ 'Autodesk Inventor 2015',
/* authorisation */ '');

FILE_SCHEMA (('CONFIG_CONTROL_DESIGN'));
ENDSEC;

DATA;
#10=MECHANICAL_DESIGN_GEOMETRIC_PRESENTATION_REPRESENTATION('',(#287,#305,
#302,#288,#299,#309,#308,#291,#306,#292,#298,#290,#296,#284,#293,#301,#304,
#294,#289,#310,#285,#286,#297,#300,#303,#311,#295,#307),#590);
#11=SHAPE_REPRESENTATION_RELATIONSHIP('SRR','None',#599,#12);
#12=ADVANCED_BREP_SHAPE_REPRESENTATION($,(#13),#589);
#13=MANIFOLD_SOLID_BREP('T\X2\011B\X0\leso2',#339);
#14=CYLINDRICAL_SURFACE('',#355,25.25);
#15=CYLINDRICAL_SURFACE('',#391,13.45);
#16=CYLINDRICAL_SURFACE('',#394,11.6);
#17=CONICAL_SURFACE('',#347,13.75,5.19442890773481);
#18=CONICAL_SURFACE('',#354,22.2964617740863,70.0000000000001);
#19=CONICAL_SURFACE('',#361,23.0390141017566,23.);
#20=CONICAL_SURFACE('',#366,20.4609858982434,23.0000000000001);
#21=CONICAL_SURFACE('',#371,12.25,3.99091309842978);
#22=CONICAL_SURFACE('',#378,13.0441408822463,5.99999999999994);
#23=CONICAL_SURFACE('',#382,13.0441408822463,5.99999999999994);
#24=CONICAL_SURFACE('',#386,13.0441408822463,5.99999999999994);
#25=CONICAL_SURFACE('',#387,13.0441408822463,5.99999999999994);
#26=TOROIDAL_SURFACE('',#344,16.3264292758522,2.);
#27=TOROIDAL_SURFACE('',#351,24.45,0.8);
#28=TOROIDAL_SURFACE('',#357,23.7529308283268,0.8);
#29=TOROIDAL_SURFACE('',#363,19.7470691716733,0.8);
#30=TOROIDAL_SURFACE('',#370,21.75,1.2);
#31=FACE_BOUND('',#86,.T.);
#32=FACE_BOUND('',#88,.T.);
#33=FACE_BOUND('',#90,.T.);
#34=FACE_BOUND('',#92,.T.);
#35=FACE_BOUND('',#94,.T.);
#36=FACE_BOUND('',#96,.T.);
#37=FACE_BOUND('',#98,.T.);
#38=FACE_BOUND('',#100,.T.);
#39=FACE_BOUND('',#102,.T.);
#40=FACE_BOUND('',#104,.T.);
#41=FACE_BOUND('',#106,.T.);
#42=FACE_BOUND('',#108,.T.);
#43=FACE_BOUND('',#110,.T.);
#44=FACE_BOUND('',#112,.T.);
#45=FACE_BOUND('',#114,.T.);
#46=FACE_BOUND('',#116,.T.);
#47=FACE_BOUND('',#118,.T.);
#48=FACE_BOUND('',#120,.T.);
#49=FACE_BOUND('',#122,.T.);
#50=FACE_BOUND('',#124,.T.);
#51=FACE_BOUND('',#126,.T.);
#52=FACE_BOUND('',#128,.T.);
#53=FACE_BOUND('',#130,.T.);
#54=FACE_BOUND('',#132,.T.);
#55=FACE_BOUND('',#134,.T.);
#56=FACE_BOUND('',#136,.T.);
#57=FACE_BOUND('',#138,.T.);
#58=FACE_OUTER_BOUND('',#85,.T.);
#59=FACE_OUTER_BOUND('',#87,.T.);
#60=FACE_OUTER_BOUND('',#89,.T.);
#61=FACE_OUTER_BOUND('',#91,.T.);
#62=FACE_OUTER_BOUND('',#93,.T.);
#63=FACE_OUTER_BOUND('',#95,.T.);
#64=FACE_OUTER_BOUND('',#97,.T.);
#65=FACE_OUTER_BOUND('',#99,.T.);
#66=FACE_OUTER_BOUND('',#101,.T.);
#67=FACE_OUTER_BOUND('',#103,.T.);
#68=FACE_OUTER_BOUND('',#105,.T.);
#69=FACE_OUTER_BOUND('',#107,.T.);
#70=FACE_OUTER_BOUND('',#109,.T.);
#71=FACE_OUTER_BOUND('',#111,.T.);
#72=FACE_OUTER_BOUND('',#113,.T.);
#73=FACE_OUTER_BOUND('',#115,.T.);
#74=FACE_OUTER_BOUND('',#117,.T.);
#75=FACE_OUTER_BOUND('',#119,.T.);
#76=FACE_OUTER_BOUND('',#121,.T.);
#77=FACE_OUTER_BOUND('',#123,.T.);
#78=FACE_OUTER_BOUND('',#125,.T.);
#79=FACE_OUTER_BOUND('',#127,.T.);
#80=FACE_OUTER_BOUND('',#129,.T.);
#81=FACE_OUTER_BOUND('',#131,.T.);
#82=FACE_OUTER_BOUND('',#133,.T.);
#83=FACE_OUTER_BOUND('',#135,.T.);
#84=FACE_OUTER_BOUND('',#137,.T.);
#85=EDGE_LOOP('',(#220));
#86=EDGE_LOOP('',(#221));
#87=EDGE_LOOP('',(#222));
#88=EDGE_LOOP('',(#223));
#89=EDGE_LOOP('',(#224));
#90=EDGE_LOOP('',(#225));
#91=EDGE_LOOP('',(#226));
#92=EDGE_LOOP('',(#227));
#93=EDGE_LOOP('',(#228));
#94=EDGE_LOOP('',(#229));
#95=EDGE_LOOP('',(#230));
#96=EDGE_LOOP('',(#231));
#97=EDGE_LOOP('',(#232));
#98=EDGE_LOOP('',(#233));
#99=EDGE_LOOP('',(#234));
#100=EDGE_LOOP('',(#235));
#101=EDGE_LOOP('',(#236));
#102=EDGE_LOOP('',(#237));
#103=EDGE_LOOP('',(#238));
#104=EDGE_LOOP('',(#239));
#105=EDGE_LOOP('',(#240));
#106=EDGE_LOOP('',(#241));
#107=EDGE_LOOP('',(#242));
#108=EDGE_LOOP('',(#243));
#109=EDGE_LOOP('',(#244));
#110=EDGE_LOOP('',(#245));
#111=EDGE_LOOP('',(#246));
#112=EDGE_LOOP('',(#247));
#113=EDGE_LOOP('',(#248));
#114=EDGE_LOOP('',(#249));
#115=EDGE_LOOP('',(#250));
#116=EDGE_LOOP('',(#251));
#117=EDGE_LOOP('',(#252));
#118=EDGE_LOOP('',(#253));
#119=EDGE_LOOP('',(#254));
#120=EDGE_LOOP('',(#255));
#121=EDGE_LOOP('',(#256));
#122=EDGE_LOOP('',(#257));
#123=EDGE_LOOP('',(#258));
#124=EDGE_LOOP('',(#259));
#125=EDGE_LOOP('',(#260));
#126=EDGE_LOOP('',(#261));
#127=EDGE_LOOP('',(#262));
#128=EDGE_LOOP('',(#263));
#129=EDGE_LOOP('',(#264));
#130=EDGE_LOOP('',(#265));
#131=EDGE_LOOP('',(#266));
#132=EDGE_LOOP('',(#267));
#133=EDGE_LOOP('',(#268));
#134=EDGE_LOOP('',(#269));
#135=EDGE_LOOP('',(#270));
#136=EDGE_LOOP('',(#271));
#137=EDGE_LOOP('',(#272));
#138=EDGE_LOOP('',(#273));
#139=CIRCLE('',#342,11.6);
#140=CIRCLE('',#343,11.5);
#141=CIRCLE('',#345,14.3346428629168);
#142=CIRCLE('',#346,16.3264292758522);
#143=CIRCLE('',#348,13.);
#144=CIRCLE('',#350,19.3429235481726);
#145=CIRCLE('',#352,24.7236161146605);
#146=CIRCLE('',#353,25.25);
#147=CIRCLE('',#356,25.25);
#148=CIRCLE('',#358,23.7529308283267);
#149=CIRCLE('',#359,23.0165269455648);
#150=CIRCLE('',#362,22.8546058241429);
#151=CIRCLE('',#364,20.4834730544352);
#152=CIRCLE('',#365,19.7470691716733);
#153=CIRCLE('',#367,20.6453941758571);
#154=CIRCLE('',#369,13.);
#155=CIRCLE('',#373,13.4382817644926);
#156=CIRCLE('',#374,12.65);
#157=CIRCLE('',#376,13.45);
#158=CIRCLE('',#377,13.4382817644926);
#159=CIRCLE('',#380,13.4382817644926);
#160=CIRCLE('',#381,12.65);
#161=CIRCLE('',#384,13.4382817644926);
#162=CIRCLE('',#385,12.65);
#163=CIRCLE('',#388,12.65);
#164=CIRCLE('',#390,13.45);
#165=CIRCLE('',#393,11.6);
#166=VERTEX_POINT('',#507);
#167=VERTEX_POINT('',#509);
#168=VERTEX_POINT('',#512);
#169=VERTEX_POINT('',#514);
#170=VERTEX_POINT('',#517);
#171=VERTEX_POINT('',#520);
#172=VERTEX_POINT('',#523);
#173=VERTEX_POINT('',#525);
#174=VERTEX_POINT('',#529);
#175=VERTEX_POINT('',#532);
#176=VERTEX_POINT('',#534);
#177=VERTEX_POINT('',#538);
#178=VERTEX_POINT('',#541);
#179=VERTEX_POINT('',#543);
#180=VERTEX_POINT('',#546);
#181=VERTEX_POINT('',#549);
#182=VERTEX_POINT('',#554);
#183=VERTEX_POINT('',#556);
#184=VERTEX_POINT('',#559);
#185=VERTEX_POINT('',#561);
#186=VERTEX_POINT('',#565);
#187=VERTEX_POINT('',#567);
#188=VERTEX_POINT('',#571);
#189=VERTEX_POINT('',#573);
#190=VERTEX_POINT('',#577);
#191=VERTEX_POINT('',#580);
#192=VERTEX_POINT('',#584);
#193=EDGE_CURVE('',#166,#166,#139,.T.);
#194=EDGE_CURVE('',#167,#167,#140,.T.);
#195=EDGE_CURVE('',#168,#168,#141,.T.);
#196=EDGE_CURVE('',#169,#169,#142,.T.);
#197=EDGE_CURVE('',#170,#170,#143,.T.);
#198=EDGE_CURVE('',#171,#171,#144,.T.);
#199=EDGE_CURVE('',#172,#172,#145,.T.);
#200=EDGE_CURVE('',#173,#173,#146,.T.);
#201=EDGE_CURVE('',#174,#174,#147,.T.);
#202=EDGE_CURVE('',#175,#175,#148,.T.);
#203=EDGE_CURVE('',#176,#176,#149,.T.);
#204=EDGE_CURVE('',#177,#177,#150,.T.);
#205=EDGE_CURVE('',#178,#178,#151,.T.);
#206=EDGE_CURVE('',#179,#179,#152,.T.);
#207=EDGE_CURVE('',#180,#180,#153,.T.);
#208=EDGE_CURVE('',#181,#181,#154,.T.);
#209=EDGE_CURVE('',#182,#182,#155,.T.);
#210=EDGE_CURVE('',#183,#183,#156,.T.);
#211=EDGE_CURVE('',#184,#184,#157,.T.);
#212=EDGE_CURVE('',#185,#185,#158,.T.);
#213=EDGE_CURVE('',#186,#186,#159,.T.);
#214=EDGE_CURVE('',#187,#187,#160,.T.);
#215=EDGE_CURVE('',#188,#188,#161,.T.);
#216=EDGE_CURVE('',#189,#189,#162,.T.);
#217=EDGE_CURVE('',#190,#190,#163,.T.);
#218=EDGE_CURVE('',#191,#191,#164,.T.);
#219=EDGE_CURVE('',#192,#192,#165,.T.);
#220=ORIENTED_EDGE('',*,*,#193,.T.);
#221=ORIENTED_EDGE('',*,*,#194,.T.);
#222=ORIENTED_EDGE('',*,*,#195,.T.);
#223=ORIENTED_EDGE('',*,*,#196,.T.);
#224=ORIENTED_EDGE('',*,*,#197,.F.);
#225=ORIENTED_EDGE('',*,*,#195,.F.);
#226=ORIENTED_EDGE('',*,*,#198,.F.);
#227=ORIENTED_EDGE('',*,*,#196,.F.);
#228=ORIENTED_EDGE('',*,*,#199,.T.);
#229=ORIENTED_EDGE('',*,*,#200,.T.);
#230=ORIENTED_EDGE('',*,*,#198,.T.);
#231=ORIENTED_EDGE('',*,*,#199,.F.);
#232=ORIENTED_EDGE('',*,*,#201,.F.);
#233=ORIENTED_EDGE('',*,*,#200,.F.);
#234=ORIENTED_EDGE('',*,*,#202,.T.);
#235=ORIENTED_EDGE('',*,*,#203,.T.);
#236=ORIENTED_EDGE('',*,*,#201,.T.);
#237=ORIENTED_EDGE('',*,*,#202,.F.);
#238=ORIENTED_EDGE('',*,*,#204,.F.);
#239=ORIENTED_EDGE('',*,*,#203,.F.);
#240=ORIENTED_EDGE('',*,*,#205,.T.);
#241=ORIENTED_EDGE('',*,*,#206,.T.);
#242=ORIENTED_EDGE('',*,*,#207,.T.);
#243=ORIENTED_EDGE('',*,*,#205,.F.);
#244=ORIENTED_EDGE('',*,*,#206,.F.);
#245=ORIENTED_EDGE('',*,*,#208,.F.);
#246=ORIENTED_EDGE('',*,*,#204,.T.);
#247=ORIENTED_EDGE('',*,*,#207,.F.);
#248=ORIENTED_EDGE('',*,*,#208,.T.);
#249=ORIENTED_EDGE('',*,*,#194,.F.);
#250=ORIENTED_EDGE('',*,*,#209,.T.);
#251=ORIENTED_EDGE('',*,*,#210,.F.);
#252=ORIENTED_EDGE('',*,*,#211,.F.);
#253=ORIENTED_EDGE('',*,*,#212,.T.);
#254=ORIENTED_EDGE('',*,*,#210,.T.);
#255=ORIENTED_EDGE('',*,*,#212,.F.);
#256=ORIENTED_EDGE('',*,*,#213,.T.);
#257=ORIENTED_EDGE('',*,*,#214,.F.);
#258=ORIENTED_EDGE('',*,*,#214,.T.);
#259=ORIENTED_EDGE('',*,*,#209,.F.);
#260=ORIENTED_EDGE('',*,*,#215,.T.);
#261=ORIENTED_EDGE('',*,*,#216,.F.);
#262=ORIENTED_EDGE('',*,*,#216,.T.);
#263=ORIENTED_EDGE('',*,*,#213,.F.);
#264=ORIENTED_EDGE('',*,*,#217,.F.);
#265=ORIENTED_EDGE('',*,*,#215,.F.);
#266=ORIENTED_EDGE('',*,*,#218,.F.);
#267=ORIENTED_EDGE('',*,*,#197,.T.);
#268=ORIENTED_EDGE('',*,*,#211,.T.);
#269=ORIENTED_EDGE('',*,*,#218,.T.);
#270=ORIENTED_EDGE('',*,*,#217,.T.);
#271=ORIENTED_EDGE('',*,*,#219,.F.);
#272=ORIENTED_EDGE('',*,*,#219,.T.);
#273=ORIENTED_EDGE('',*,*,#193,.F.);
#274=PLANE('',#341);
#275=PLANE('',#349);
#276=PLANE('',#360);
#277=PLANE('',#368);
#278=PLANE('',#372);
#279=PLANE('',#375);
#280=PLANE('',#379);
#281=PLANE('',#383);
#282=PLANE('',#389);
#283=PLANE('',#392);
#284=STYLED_ITEM('',(#608),#312);
#285=STYLED_ITEM('',(#608),#313);
#286=STYLED_ITEM('',(#608),#314);
#287=STYLED_ITEM('',(#608),#315);
#288=STYLED_ITEM('',(#608),#316);
#289=STYLED_ITEM('',(#608),#317);
#290=STYLED_ITEM('',(#608),#318);
#291=STYLED_ITEM('',(#608),#319);
#292=STYLED_ITEM('',(#608),#320);
#293=STYLED_ITEM('',(#608),#321);
#294=STYLED_ITEM('',(#608),#322);
#295=STYLED_ITEM('',(#608),#323);
#296=STYLED_ITEM('',(#608),#324);
#297=STYLED_ITEM('',(#608),#325);
#298=STYLED_ITEM('',(#608),#326);
#299=STYLED_ITEM('',(#608),#327);
#300=STYLED_ITEM('',(#608),#328);
#301=STYLED_ITEM('',(#608),#329);
#302=STYLED_ITEM('',(#608),#330);
#303=STYLED_ITEM('',(#608),#331);
#304=STYLED_ITEM('',(#608),#332);
#305=STYLED_ITEM('',(#608),#333);
#306=STYLED_ITEM('',(#608),#334);
#307=STYLED_ITEM('',(#608),#335);
#308=STYLED_ITEM('',(#608),#336);
#309=STYLED_ITEM('',(#608),#337);
#310=STYLED_ITEM('',(#608),#338);
#311=STYLED_ITEM('',(#608),#13);
#312=ADVANCED_FACE('',(#58,#31),#274,.T.);
#313=ADVANCED_FACE('',(#59,#32),#26,.F.);
#314=ADVANCED_FACE('',(#60,#33),#17,.T.);
#315=ADVANCED_FACE('',(#61,#34),#275,.T.);
#316=ADVANCED_FACE('',(#62,#35),#27,.T.);
#317=ADVANCED_FACE('',(#63,#36),#18,.T.);
#318=ADVANCED_FACE('',(#64,#37),#14,.T.);
#319=ADVANCED_FACE('',(#65,#38),#28,.T.);
#320=ADVANCED_FACE('',(#66,#39),#276,.T.);
#321=ADVANCED_FACE('',(#67,#40),#19,.F.);
#322=ADVANCED_FACE('',(#68,#41),#29,.T.);
#323=ADVANCED_FACE('',(#69,#42),#20,.T.);
#324=ADVANCED_FACE('',(#70,#43),#277,.T.);
#325=ADVANCED_FACE('',(#71,#44),#30,.F.);
#326=ADVANCED_FACE('',(#72,#45),#21,.F.);
#327=ADVANCED_FACE('',(#73,#46),#278,.F.);
#328=ADVANCED_FACE('',(#74,#47),#279,.F.);
#329=ADVANCED_FACE('',(#75,#48),#22,.T.);
#330=ADVANCED_FACE('',(#76,#49),#280,.F.);
#331=ADVANCED_FACE('',(#77,#50),#23,.T.);
#332=ADVANCED_FACE('',(#78,#51),#281,.F.);
#333=ADVANCED_FACE('',(#79,#52),#24,.T.);
#334=ADVANCED_FACE('',(#80,#53),#25,.T.);
#335=ADVANCED_FACE('',(#81,#54),#282,.T.);
#336=ADVANCED_FACE('',(#82,#55),#15,.T.);
#337=ADVANCED_FACE('',(#83,#56),#283,.T.);
#338=ADVANCED_FACE('',(#84,#57),#16,.F.);
#339=CLOSED_SHELL('',(#312,#313,#314,#315,#316,#317,#318,#319,#320,#321,
#322,#323,#324,#325,#326,#327,#328,#329,#330,#331,#332,#333,#334,#335,#336,
#337,#338));
#340=AXIS2_PLACEMENT_3D('placement',#505,#395,#396);
#341=AXIS2_PLACEMENT_3D('',#506,#397,#398);
#342=AXIS2_PLACEMENT_3D('',#508,#399,#400);
#343=AXIS2_PLACEMENT_3D('',#510,#401,#402);
#344=AXIS2_PLACEMENT_3D('',#511,#403,#404);
#345=AXIS2_PLACEMENT_3D('',#513,#405,#406);
#346=AXIS2_PLACEMENT_3D('',#515,#407,#408);
#347=AXIS2_PLACEMENT_3D('',#516,#409,#410);
#348=AXIS2_PLACEMENT_3D('',#518,#411,#412);
#349=AXIS2_PLACEMENT_3D('',#519,#413,#414);
#350=AXIS2_PLACEMENT_3D('',#521,#415,#416);
#351=AXIS2_PLACEMENT_3D('',#522,#417,#418);
#352=AXIS2_PLACEMENT_3D('',#524,#419,#420);
#353=AXIS2_PLACEMENT_3D('',#526,#421,#422);
#354=AXIS2_PLACEMENT_3D('',#527,#423,#424);
#355=AXIS2_PLACEMENT_3D('',#528,#425,#426);
#356=AXIS2_PLACEMENT_3D('',#530,#427,#428);
#357=AXIS2_PLACEMENT_3D('',#531,#429,#430);
#358=AXIS2_PLACEMENT_3D('',#533,#431,#432);
#359=AXIS2_PLACEMENT_3D('',#535,#433,#434);
#360=AXIS2_PLACEMENT_3D('',#536,#435,#436);
#361=AXIS2_PLACEMENT_3D('',#537,#437,#438);
#362=AXIS2_PLACEMENT_3D('',#539,#439,#440);
#363=AXIS2_PLACEMENT_3D('',#540,#441,#442);
#364=AXIS2_PLACEMENT_3D('',#542,#443,#444);
#365=AXIS2_PLACEMENT_3D('',#544,#445,#446);
#366=AXIS2_PLACEMENT_3D('',#545,#447,#448);
#367=AXIS2_PLACEMENT_3D('',#547,#449,#450);
#368=AXIS2_PLACEMENT_3D('',#548,#451,#452);
#369=AXIS2_PLACEMENT_3D('',#550,#453,#454);
#370=AXIS2_PLACEMENT_3D('',#551,#455,#456);
#371=AXIS2_PLACEMENT_3D('',#552,#457,#458);
#372=AXIS2_PLACEMENT_3D('',#553,#459,#460);
#373=AXIS2_PLACEMENT_3D('',#555,#461,#462);
#374=AXIS2_PLACEMENT_3D('',#557,#463,#464);
#375=AXIS2_PLACEMENT_3D('',#558,#465,#466);
#376=AXIS2_PLACEMENT_3D('',#560,#467,#468);
#377=AXIS2_PLACEMENT_3D('',#562,#469,#470);
#378=AXIS2_PLACEMENT_3D('',#563,#471,#472);
#379=AXIS2_PLACEMENT_3D('',#564,#473,#474);
#380=AXIS2_PLACEMENT_3D('',#566,#475,#476);
#381=AXIS2_PLACEMENT_3D('',#568,#477,#478);
#382=AXIS2_PLACEMENT_3D('',#569,#479,#480);
#383=AXIS2_PLACEMENT_3D('',#570,#481,#482);
#384=AXIS2_PLACEMENT_3D('',#572,#483,#484);
#385=AXIS2_PLACEMENT_3D('',#574,#485,#486);
#386=AXIS2_PLACEMENT_3D('',#575,#487,#488);
#387=AXIS2_PLACEMENT_3D('',#576,#489,#490);
#388=AXIS2_PLACEMENT_3D('',#578,#491,#492);
#389=AXIS2_PLACEMENT_3D('',#579,#493,#494);
#390=AXIS2_PLACEMENT_3D('',#581,#495,#496);
#391=AXIS2_PLACEMENT_3D('',#582,#497,#498);
#392=AXIS2_PLACEMENT_3D('',#583,#499,#500);
#393=AXIS2_PLACEMENT_3D('',#585,#501,#502);
#394=AXIS2_PLACEMENT_3D('',#586,#503,#504);
#395=DIRECTION('axis',(0.,0.,1.));
#396=DIRECTION('refdir',(1.,0.,0.));
#397=DIRECTION('center_axis',(1.,-1.12589809441193E-16,-3.36932255077983E-17));
#398=DIRECTION('ref_axis',(0.,-0.26009097340166,-0.965584116250354));
#399=DIRECTION('center_axis',(1.,0.,0.));
#400=DIRECTION('ref_axis',(0.,0.,-1.));
#401=DIRECTION('center_axis',(-1.,1.12589809441193E-16,3.36932255077983E-17));
#402=DIRECTION('ref_axis',(6.18172365082387E-17,0.26009097340166,0.965584116250354));
#403=DIRECTION('center_axis',(-1.,1.12589809441193E-16,3.36932255077983E-17));
#404=DIRECTION('ref_axis',(0.,0.26009097340166,0.965584116250354));
#405=DIRECTION('center_axis',(-1.,1.12589809441193E-16,3.36932255077983E-17));
#406=DIRECTION('ref_axis',(-9.99516278287055E-17,-0.965584116250354,0.26009097340166));
#407=DIRECTION('center_axis',(1.,-1.12589809441193E-16,-3.36932255077983E-17));
#408=DIRECTION('ref_axis',(-9.99516278287055E-17,-0.965584116250354,0.26009097340166));
#409=DIRECTION('center_axis',(-1.,1.12589809441193E-16,3.36932255077983E-17));
#410=DIRECTION('ref_axis',(9.99516278287055E-17,0.965584116250354,-0.26009097340166));
#411=DIRECTION('center_axis',(1.,0.,0.));
#412=DIRECTION('ref_axis',(9.99516278287055E-17,0.965584116250354,-0.26009097340166));
#413=DIRECTION('center_axis',(1.,-1.12589809441193E-16,-3.36932255077983E-17));
#414=DIRECTION('ref_axis',(0.,-0.26009097340166,-0.965584116250354));
#415=DIRECTION('center_axis',(-1.,1.12589809441193E-16,3.36932255077983E-17));
#416=DIRECTION('ref_axis',(6.18172365082387E-17,0.26009097340166,0.965584116250354));
#417=DIRECTION('center_axis',(-1.,1.12589809441193E-16,3.36932255077983E-17));
#418=DIRECTION('ref_axis',(0.,0.26009097340166,0.965584116250354));
#419=DIRECTION('center_axis',(-1.,1.12589809441193E-16,3.36932255077983E-17));
#420=DIRECTION('ref_axis',(-9.99516278287055E-17,-0.965584116250354,0.26009097340166));
#421=DIRECTION('center_axis',(1.,-1.12589809441193E-16,-3.36932255077983E-17));
#422=DIRECTION('ref_axis',(-9.99516278287055E-17,-0.965584116250354,0.26009097340166));
#423=DIRECTION('center_axis',(-1.,1.12589809441193E-16,3.36932255077983E-17));
#424=DIRECTION('ref_axis',(9.99516278287055E-17,0.965584116250354,-0.26009097340166));
#425=DIRECTION('center_axis',(-1.,1.12589809441193E-16,3.36932255077983E-17));
#426=DIRECTION('ref_axis',(9.99516278287055E-17,0.965584116250354,-0.26009097340166));
#427=DIRECTION('center_axis',(-1.,1.12589809441193E-16,3.36932255077983E-17));
#428=DIRECTION('ref_axis',(6.18172365082387E-17,0.26009097340166,0.965584116250354));
#429=DIRECTION('center_axis',(-1.,1.12589809441193E-16,3.36932255077983E-17));
#430=DIRECTION('ref_axis',(0.,0.26009097340166,0.965584116250354));
#431=DIRECTION('center_axis',(-1.,1.12589809441193E-16,3.36932255077983E-17));
#432=DIRECTION('ref_axis',(-9.99516278287055E-17,-0.965584116250354,0.26009097340166));
#433=DIRECTION('center_axis',(1.,-1.12589809441193E-16,-3.36932255077983E-17));
#434=DIRECTION('ref_axis',(-9.99516278287055E-17,-0.965584116250354,0.26009097340166));
#435=DIRECTION('center_axis',(-1.,1.12589809441193E-16,3.36932255077983E-17));
#436=DIRECTION('ref_axis',(0.,0.26009097340166,0.965584116250354));
#437=DIRECTION('center_axis',(-1.,1.12589809441193E-16,3.36932255077983E-17));
#438=DIRECTION('ref_axis',(9.99516278287055E-17,0.965584116250354,-0.26009097340166));
#439=DIRECTION('center_axis',(-1.,1.12589809441193E-16,3.36932255077983E-17));
#440=DIRECTION('ref_axis',(6.18172365082387E-17,0.26009097340166,0.965584116250354));
#441=DIRECTION('center_axis',(-1.,1.12589809441193E-16,3.36932255077983E-17));
#442=DIRECTION('ref_axis',(0.,0.26009097340166,0.965584116250354));
#443=DIRECTION('center_axis',(-1.,1.12589809441193E-16,3.36932255077983E-17));
#444=DIRECTION('ref_axis',(-9.99516278287055E-17,-0.965584116250354,0.26009097340166));
#445=DIRECTION('center_axis',(1.,-1.12589809441193E-16,-3.36932255077983E-17));
#446=DIRECTION('ref_axis',(-9.99516278287055E-17,-0.965584116250354,0.26009097340166));
#447=DIRECTION('center_axis',(1.,-1.12589809441193E-16,-3.36932255077983E-17));
#448=DIRECTION('ref_axis',(9.99516278287055E-17,0.965584116250354,-0.26009097340166));
#449=DIRECTION('center_axis',(-1.,1.12589809441193E-16,3.36932255077983E-17));
#450=DIRECTION('ref_axis',(6.18172365082387E-17,0.26009097340166,0.965584116250354));
#451=DIRECTION('center_axis',(-1.,1.12589809441193E-16,3.36932255077983E-17));
#452=DIRECTION('ref_axis',(0.,0.26009097340166,0.965584116250354));
#453=DIRECTION('center_axis',(-1.,1.12589809441193E-16,3.36932255077983E-17));
#454=DIRECTION('ref_axis',(6.18172365082387E-17,0.26009097340166,0.965584116250354));
#455=DIRECTION('center_axis',(-1.,1.12589809441193E-16,3.36932255077983E-17));
#456=DIRECTION('ref_axis',(0.,0.26009097340166,0.965584116250354));
#457=DIRECTION('center_axis',(-1.,1.12589809441193E-16,3.36932255077983E-17));
#458=DIRECTION('ref_axis',(9.99516278287055E-17,0.965584116250354,-0.26009097340166));
#459=DIRECTION('center_axis',(1.,0.,0.));
#460=DIRECTION('ref_axis',(0.,0.,-1.));
#461=DIRECTION('center_axis',(-1.,0.,0.));
#462=DIRECTION('ref_axis',(0.,0.,1.));
#463=DIRECTION('center_axis',(-1.,0.,0.));
#464=DIRECTION('ref_axis',(0.,0.,1.));
#465=DIRECTION('center_axis',(-1.,0.,0.));
#466=DIRECTION('ref_axis',(0.,0.,1.));
#467=DIRECTION('center_axis',(-1.,0.,0.));
#468=DIRECTION('ref_axis',(0.,1.,0.));
#469=DIRECTION('center_axis',(-1.,0.,0.));
#470=DIRECTION('ref_axis',(0.,0.,1.));
#471=DIRECTION('center_axis',(-1.,0.,0.));
#472=DIRECTION('ref_axis',(0.,1.,0.));
#473=DIRECTION('center_axis',(1.,0.,0.));
#474=DIRECTION('ref_axis',(0.,0.,-1.));
#475=DIRECTION('center_axis',(-1.,0.,0.));
#476=DIRECTION('ref_axis',(0.,0.,1.));
#477=DIRECTION('center_axis',(-1.,0.,0.));
#478=DIRECTION('ref_axis',(0.,0.,1.));
#479=DIRECTION('center_axis',(-1.,0.,0.));
#480=DIRECTION('ref_axis',(0.,1.,0.));
#481=DIRECTION('center_axis',(1.,0.,0.));
#482=DIRECTION('ref_axis',(0.,0.,-1.));
#483=DIRECTION('center_axis',(-1.,0.,0.));
#484=DIRECTION('ref_axis',(0.,0.,1.));
#485=DIRECTION('center_axis',(-1.,0.,0.));
#486=DIRECTION('ref_axis',(0.,0.,1.));
#487=DIRECTION('center_axis',(-1.,0.,0.));
#488=DIRECTION('ref_axis',(0.,1.,0.));
#489=DIRECTION('center_axis',(-1.,0.,0.));
#490=DIRECTION('ref_axis',(0.,1.,0.));
#491=DIRECTION('center_axis',(1.,0.,0.));
#492=DIRECTION('ref_axis',(0.,1.,0.));
#493=DIRECTION('center_axis',(-1.,0.,0.));
#494=DIRECTION('ref_axis',(0.,0.,1.));
#495=DIRECTION('center_axis',(1.,0.,0.));
#496=DIRECTION('ref_axis',(0.,0.,-1.));
#497=DIRECTION('center_axis',(1.,0.,0.));
#498=DIRECTION('ref_axis',(0.,1.,0.));
#499=DIRECTION('center_axis',(1.,0.,0.));
#500=DIRECTION('ref_axis',(0.,0.,-1.));
#501=DIRECTION('center_axis',(1.,0.,0.));
#502=DIRECTION('ref_axis',(0.,0.,-1.));
#503=DIRECTION('center_axis',(1.,0.,0.));
#504=DIRECTION('ref_axis',(0.,1.,0.));
#505=CARTESIAN_POINT('',(0.,0.,0.));
#506=CARTESIAN_POINT('Origin',(-59.,12.5525935112546,-3.38118265422158));
#507=CARTESIAN_POINT('',(-59.,11.6,0.));
#508=CARTESIAN_POINT('Origin',(-59.,0.,0.));
#509=CARTESIAN_POINT('',(-59.,11.1042173368791,-2.99104619411909));
#510=CARTESIAN_POINT('Origin',(-59.,1.11951747589199E-14,0.));
#511=CARTESIAN_POINT('Origin',(-73.5,1.28277269958172E-14,4.88551769863075E-16));
#512=CARTESIAN_POINT('',(-73.681071492085,13.841303460554,-3.72831121558119));
#513=CARTESIAN_POINT('Origin',(-73.681071492085,1.34188468501546E-14,2.61349114985326E-15));
#514=CARTESIAN_POINT('',(-75.5,15.7645407838477,-4.24635688252976));
#515=CARTESIAN_POINT('Origin',(-75.5,1.30529066146996E-14,5.55938220878672E-16));
#516=CARTESIAN_POINT('Origin',(-67.25,1.21240406868097E-14,2.77969110439336E-16));
#517=CARTESIAN_POINT('',(-59.,12.5525935112546,-3.38118265422158));
#518=CARTESIAN_POINT('Origin',(-59.,1.11951747589199E-14,6.16297582203915E-32));
#519=CARTESIAN_POINT('Origin',(-75.5,18.6772197399604,-5.03091981407809));
#520=CARTESIAN_POINT('',(-75.5,18.6772197399604,-5.03091981407809));
#521=CARTESIAN_POINT('Origin',(-75.5,1.30529066146996E-14,5.55938220878672E-16));
#522=CARTESIAN_POINT('Origin',(-78.2101660305677,1.33580436916352E-14,6.47252456110166E-16));
#523=CARTESIAN_POINT('',(-77.458411933939,23.8727310165875,-6.43038938127103));
#524=CARTESIAN_POINT('Origin',(-77.458411933939,1.42577733127797E-14,4.27638138910225E-15));
#525=CARTESIAN_POINT('',(-78.2101660305677,24.3809989353215,-6.56729707839191));
#526=CARTESIAN_POINT('Origin',(-78.2101660305677,1.33580436916352E-14,6.47252456110166E-16));
#527=CARTESIAN_POINT('Origin',(-76.575,1.31739406598489E-14,5.92158438299555E-16));
#528=CARTESIAN_POINT('Origin',(-79.075,1.34554151834519E-14,6.76391502069051E-16));
#529=CARTESIAN_POINT('',(-80.5,24.3809989353215,-6.56729707839192));
#530=CARTESIAN_POINT('Origin',(-80.5,1.36158556619056E-14,7.24404348417664E-16));
#531=CARTESIAN_POINT('Origin',(-79.7,1.35257838143526E-14,6.97449768011425E-16));
#532=CARTESIAN_POINT('',(-80.5,22.9354527222257,-6.1779229002818));
#533=CARTESIAN_POINT('Origin',(-80.5,1.36158556619056E-14,7.24404348417664E-16));
#534=CARTESIAN_POINT('',(-80.0125849027914,22.2243928298857,-5.98639089759748));
#535=CARTESIAN_POINT('Origin',(-80.0125849027914,1.44773794953905E-14,4.11011070439561E-15));
#536=CARTESIAN_POINT('Origin',(-80.5,22.4241677744929,-6.04020253236829));
#537=CARTESIAN_POINT('Origin',(-80.0655613229064,1.35669422940377E-14,7.09766708101041E-16));
#538=CARTESIAN_POINT('',(-79.6311226458129,22.0680443669553,-5.94427667551258));
#539=CARTESIAN_POINT('Origin',(-79.6311226458129,1.35180289261699E-14,6.95129067784418E-16));
#540=CARTESIAN_POINT('Origin',(-79.7,1.35257838143526E-14,6.97449768011425E-16));
#541=CARTESIAN_POINT('',(-80.0125849027914,19.7785162270048,-5.32756644537473));
#542=CARTESIAN_POINT('Origin',(-80.0125849027914,1.43765260883137E-14,3.73569383529218E-15));
#543=CARTESIAN_POINT('',(-80.5,19.0674563346647,-5.1360344426904));
#544=CARTESIAN_POINT('Origin',(-80.5,1.36158556619056E-14,7.24404348417664E-16));
#545=CARTESIAN_POINT('Origin',(-80.0655613229064,1.35669422940377E-14,7.09766708101041E-16));
#546=CARTESIAN_POINT('',(-79.6311226458129,19.9348646899352,-5.36968066745963));
#547=CARTESIAN_POINT('Origin',(-79.6311226458129,1.35180289261699E-14,6.95129067784418E-16));
#548=CARTESIAN_POINT('Origin',(-80.5,12.5525935112546,-3.38118265422158));
#549=CARTESIAN_POINT('',(-80.5,12.5525935112546,-3.38118265422158));
#550=CARTESIAN_POINT('Origin',(-80.5,1.36158556619056E-14,7.24404348417664E-16));
#551=CARTESIAN_POINT('Origin',(-80.1,1.35708197381291E-14,7.10927058214544E-16));
#552=CARTESIAN_POINT('Origin',(-69.75,1.24055152104127E-14,3.62202174208832E-16));
#553=CARTESIAN_POINT('Origin',(-22.5,15.65,0.));
#554=CARTESIAN_POINT('',(-22.5,13.4382817644926,0.));
#555=CARTESIAN_POINT('Origin',(-22.5,0.,0.));
#556=CARTESIAN_POINT('',(-22.5,12.65,0.));
#557=CARTESIAN_POINT('Origin',(-22.5,0.,0.));
#558=CARTESIAN_POINT('Origin',(-30.,13.4382817644926,0.));
#559=CARTESIAN_POINT('',(-30.,-13.45,1.64714994485319E-15));
#560=CARTESIAN_POINT('Origin',(-30.,0.,0.));
#561=CARTESIAN_POINT('',(-30.,13.4382817644926,0.));
#562=CARTESIAN_POINT('Origin',(-30.,0.,0.));
#563=CARTESIAN_POINT('Origin',(-26.25,0.,0.));
#564=CARTESIAN_POINT('Origin',(-15.,15.65,0.));
#565=CARTESIAN_POINT('',(-15.,13.4382817644926,0.));
#566=CARTESIAN_POINT('Origin',(-15.,0.,0.));
#567=CARTESIAN_POINT('',(-15.,12.65,0.));
#568=CARTESIAN_POINT('Origin',(-15.,0.,0.));
#569=CARTESIAN_POINT('Origin',(-18.75,0.,0.));
#570=CARTESIAN_POINT('Origin',(-7.5,15.65,0.));
#571=CARTESIAN_POINT('',(-7.5,13.4382817644926,0.));
#572=CARTESIAN_POINT('Origin',(-7.5,0.,0.));
#573=CARTESIAN_POINT('',(-7.5,12.65,0.));
#574=CARTESIAN_POINT('Origin',(-7.5,0.,0.));
#575=CARTESIAN_POINT('Origin',(-11.25,0.,0.));
#576=CARTESIAN_POINT('Origin',(-3.75,0.,0.));
#577=CARTESIAN_POINT('',(0.,12.65,0.));
#578=CARTESIAN_POINT('Origin',(-2.22044604925031E-15,0.,0.));
#579=CARTESIAN_POINT('Origin',(-59.,13.45,0.));
#580=CARTESIAN_POINT('',(-59.,13.45,0.));
#581=CARTESIAN_POINT('Origin',(-59.,0.,0.));
#582=CARTESIAN_POINT('Origin',(-29.5,0.,0.));
#583=CARTESIAN_POINT('Origin',(-2.13088543051639E-15,11.6,0.));
#584=CARTESIAN_POINT('',(-2.13088543051639E-15,11.6,0.));
#585=CARTESIAN_POINT('Origin',(0.,0.,0.));
#586=CARTESIAN_POINT('Origin',(-29.5,0.,0.));
#587=UNCERTAINTY_MEASURE_WITH_UNIT(LENGTH_MEASURE(0.01),#591,
'DISTANCE_ACCURACY_VALUE',
'Maximum model space distance between geometric entities at asserted c
onnectivities');
#588=UNCERTAINTY_MEASURE_WITH_UNIT(LENGTH_MEASURE(1.E-6),#591,
'DISTANCE_ACCURACY_VALUE',
'Maximum model space distance between geometric entities at asserted c
onnectivities');
#589=(
GEOMETRIC_REPRESENTATION_CONTEXT(3)
GLOBAL_UNCERTAINTY_ASSIGNED_CONTEXT((#587))
GLOBAL_UNIT_ASSIGNED_CONTEXT((#591,#594,#592))
REPRESENTATION_CONTEXT('','3D')
);
#590=(
GEOMETRIC_REPRESENTATION_CONTEXT(3)
GLOBAL_UNCERTAINTY_ASSIGNED_CONTEXT((#588))
GLOBAL_UNIT_ASSIGNED_CONTEXT((#591,#594,#592))
REPRESENTATION_CONTEXT('','3D')
);
#591=(
LENGTH_UNIT()
NAMED_UNIT(*)
SI_UNIT(.MILLI.,.METRE.)
);
#592=(
NAMED_UNIT(*)
SI_UNIT($,.STERADIAN.)
SOLID_ANGLE_UNIT()
);
#593=DIMENSIONAL_EXPONENTS(0.,0.,0.,0.,0.,0.,0.);
#594=(
CONVERSION_BASED_UNIT('degree',#596)
NAMED_UNIT(#593)
PLANE_ANGLE_UNIT()
);
#595=(
NAMED_UNIT(*)
PLANE_ANGLE_UNIT()
SI_UNIT($,.RADIAN.)
);
#596=PLANE_ANGLE_MEASURE_WITH_UNIT(PLANE_ANGLE_MEASURE(0.01745329252),#595);
#597=SHAPE_DEFINITION_REPRESENTATION(#598,#599);
#598=PRODUCT_DEFINITION_SHAPE('',$,#601);
#599=SHAPE_REPRESENTATION('',(#340),#589);
#600=DESIGN_CONTEXT('part definition',#605,'design');
#601=PRODUCT_DEFINITION('26070025000','26070025000',#602,#600);
#602=PRODUCT_DEFINITION_FORMATION('',$,#607);
#603=PRODUCT_RELATED_PRODUCT_CATEGORY('26070025000','26070025000',(#607));
#604=APPLICATION_PROTOCOL_DEFINITION('international standard',
'ap203_configuration_controlled_3d_design_of_mechanical_parts_and_asse
mblies_mim_lf',2004,#605);
#605=APPLICATION_CONTEXT(
'Configuration Controlled 3D Design of Mechanical Parts and Assemblies');
#606=MECHANICAL_CONTEXT('part definition',#605,'mechanical');
#607=PRODUCT('26070025000','26070025000',$,(#606));
#608=PRESENTATION_STYLE_ASSIGNMENT((#609));
#609=SURFACE_STYLE_USAGE(.BOTH.,#610);
#610=SURFACE_SIDE_STYLE($,(#611));
#611=SURFACE_STYLE_FILL_AREA(#612);
#612=FILL_AREA_STYLE($,(#613));
#613=FILL_AREA_STYLE_COLOUR($,#614);
#614=COLOUR_RGB('',0.745098039215686,0.737254901960784,0.729411764705882);
ENDSEC;
END-ISO-10303-21;
